Song name
# A B C D E F G H I J K L M N O P Q R S T U V W X Y Z

Misc Unsigned Bands - The Siblings - Really Love You tab

-------------------------------------------------------------------------------
			     Really Love You - The Siblings
-------------------------------------------------------------------------------
Tabbed by:romeo369
Email:mat_kental91@hotmail.com

Tuning:EADGBE

gd luck!!

e|------------------------------------------------------------------------------|
B|-------------8-8-9-8~--8-8-8/9-8--------8-------------8-8/9-----------8-------|
G|----8-8-10-10-------------------10-10-10-10~--10-10-10-----10-8~-8-8-8-10-8~--|
D|-8-8--------------------------------------------------------------------------|
A|------------------------------------------------------------------------------|
E|------------------------------------------------------------------------------|

e|----------------------------------------------------------------------|
B|-------------8-8-9-8~--8-8-8/9-11--------8---------8-9-8--------------|
G|----8-8-10-10--------------------10-10-10-10~-10-10-----10-8-10-7-8~--|
D|-8-8------------------------------------------------------------------|
A|----------------------------------------------------------------------|
E|----------------------------------------------------------------------|

e|------------------------------------------------------------------------------------|
B|------8-----------------------------------------------------------------------------|
G|-8-8-8-10-8~------------------------------------------------------------------------|
D|------------------------------------------------------------------------------------|
A|------------------------------------------------------------------------------------|
E|------------------------------------------------------------------------------------|
Tap to rate this tab
# A B C D E F G H I J K L M N O P Q R S T U V W X Y Z