Guitaretab - guitar tabs
Song name
# A B C D E F G H I J K L M N O P Q R S T U V W X Y Z

Misc Unsigned Bands - The Joe Pirret Experience - You Aint So Special tab

Highlighted       Show chord diagrams
----------------------------------------------------------------------------
			     SONG NAME - Band Name
----------------------------------------------------------------------------
Tabbed by: Big Joe
Email: thejoepirretexperience@hotmail.com
Myspace: www.myspace.com/thejoepirretexperience
Tuning: Standard

Intro (Bass) :

G|-------------------------------||
D|-------------------------------||
A|-------------------------------||
E|-0-7-8-7-0-7-8-7-0-7-8-7\5\3-0-||

^play x4 - then pause. Acoustic Guitar Comes In With Cords.

Verses (Acoustic Guitar) :

e|-0-------------0-------------3-------------2-------------||
B|-2-------------1-------------3-------------3-------------||
G|-2-------------0-------------0-------------2-------------||
D|-2-------------2-------------0-------------0-------------||
A|-0-------------3-------------2-------------x-------------||
E|-0-------------x-------------3-------------x-------------||
   1 & 2 & 3 & 4 1 & 2 & 3 & 4 1 & 2 & 3 & 4 1 & 2 & 3 & 4
[ Tab from: http://www.guitaretab.com/m/misc-unsigned-bands/77202.html ]
^During the verses - i just tell my story - bout how love sucks and how a girl can get
you and one of your friends - a girl who you think is special but then goes and messes up
mind by betraying you - explointing the weaknesses you never knew you had - stuff like 
.continue to play these cords untill chorus.

Chorus:
      Cm (strum once)
But I looked at you -
      G (strum once)
And I saw your face -
       Dm (strum once)
Then I saw his fist -
      A (strum once)
And i felt it.
             Cm (strum once)
What did you tell him?
             G  (strum once)
What does he know?
              Dm (strum once)
I watched you stab me in the heart -
         A (strum once)
And then deny it.
          Cm (strum once)
But After All this Anguish -
          G (strum once)
After all this hurt -
             Dm (strum once)
Ive realized now that -
            A (strum once)
You aint so special after all.

Outro. (spoken)
N.C
You Aint So Special
N.C
You Aint So Special
N.C
You Aint - so - special.


Thats IT.

Any comments/suggestions - email me.

thejoepirretexperience@hotmail.com or pirret@btinternet.com

Also - Add Us On Myspace!

www.myspace.com/thejoepirretexperience@hotmail.com
Related for The Joe Pirret Experience - You Aint So Special tab
Advertisement will be closed in 10 seconds