Song name
# A B C D E F G H I J K L M N O P Q R S T U V W X Y Z

Misc Unsigned Bands - Dicks In The Sun - Pookie tab

This is a super song it is awsome try playing this song.
PLEASE PLEASE  PLEASE SEND IN COMMENTS!!!!!
I would really like see what you other people think of this song.



intro
|----------------|
|----------------|
|----------------|
|---4-4-5---4-3-2|
|-5-6-6-7-5-6-5-4|
|-7-------7------|
verse play 2 time
|-----------------------------------------|
|-----------------------------------------|
|-----------------------------------------|
|---4-4---4-4---4-4-----4-4---4-4---4-4---|
|-5-6-6-5-6-6-5-6-6-5-5-6-6-5-6-6-5-6-6-5-|
|-7-----7-----7-----7-7-----7-----7-----7-|
verse play 2 time
|-----------------------------------------|
|-----------------------------------------|
|-----------------------------------------|
|---4-4---4-4---4-4-----4-4---4-4---4-4---|
|-5-6-6-5-6-6-5-6-6-5-5-6-6-5-6-6-5-6-6-5-|
|-7-----7-----7-----7-7-----7-----7-----7-|
solo
|-------6-6-6-6-9-9-9-9-9-5-5-5-5-8-8-8-8-8----------6-6-6-6-9-9-9-9-------|
|------9-9-9-9-9-6-6-6-6-6-8-8-8-8-8-5-5-5-5--------9-9-9-9-9-6-6-6-6------|
|8-8-8----------------------------------------8-8-8-------------------8-8-8|
|--------------------------------------------------------------------------|
|--------------------------------------------------------------------------|
|--------------------------------------------------------------------------|
verse play 2 time
|-----------------------------------------|
|-----------------------------------------|
|-----------------------------------------|
|---4-4---4-4---4-4-----4-4---4-4---4-4---|
|-5-6-6-5-6-6-5-6-6-5-5-6-6-5-6-6-5-6-6-5-|
|-7-----7-----7-----7-7-----7-----7-----7-|
verseplay 2
|-----------------------------------------|
|-----------------------------------------|
|-----------------------------------------|
|---4-4---4-4---4-4-----4-4---4-4---4-4---|
|-5-6-6-5-6-6-5-6-6-5-5-6-6-5-6-6-5-6-6-5-|
|-7-----7-----7-----7-7-----7-----7-----7-|
I hope you will enjoy this tab.
Remember PLEASE SEND IN COMMENTS.
Tap to rate this tab
# A B C D E F G H I J K L M N O P Q R S T U V W X Y Z