Song name
# A B C D E F G H I J K L M N O P Q R S T U V W X Y Z

Misc Unsigned Bands - Poodle Privates - Purple Frogs tab

   This is a great song to play.Poodle Privates are one of my favorite bands in the
I also like playing that song by crackers under misc unsigned band. I've never haerd that
but I like playing it. Since the Poodle pirvates are so good out here in this little
in north carolina. they haven't play any where outside this county. They have plenty of
that I can send in...speaking of which I think I'll send in more songs by the Poodle Privates.

Well I hope you will enjoy this song as much as I do.

|------------------------------------|
|------------------------------------|
|------------------------------------|
|-4-------4-3-3-5-6-7-6-5-4--4-3-3-6-|
|---------4-----5---7---5-4--4-------|
|-4-3-3-6-4-3-3-5-6-7-6-5-4--4-3-3-6-|

play 6 times
|---------------------------|
|---------------------------|
|---------------------------|
|-4-3-3-6--4-3-3-6--4-3-3-6-|
|-4--------4--------4-------|
|-4-3-3-6--4-3-3-6--4-3-3-6-|

play 3 times
|-----------------------|
|-----------------------|
|-----------------------|
|---5-6-6-7-7-5-6-6-7-7-|
|---5-------7-5-------7-|
|---5-6-6-7-7-5-6-6-7-7-|

play 6 times
|---------------------------|
|---------------------------|
|---------------------------|
|-4-3-3-6--4-3-3-6--4-3-3-6-|
|-4--------4--------4-------|
|-4-3-3-6--4-3-3-6--4-3-3-6-|

play 3 times
|-----------------------|
|-----------------------|
|-----------------------|
|---5-6-6-7-7-5-6-6-7-7-|
|---5-------7-5-------7-|
|---5-6-6-7-7-5-6-6-7-7-|

play 1 time
|-------6-7-7-7-7-7---9---5---5---0-5-6-0-0-1-2----2-3-3--------|
|-----6---7---7---7-8----7--0--4--6---6---------1-2-------------|
|---5---6-7-7-7-7-7----8----6----5------------------------------|
|-5---6----------------8----6----5------------------------------|
|---5------------------8----6-----------------------------------|
|-5-------------------------------------------------------------|

play 6 times
|---------------------------|
|---------------------------|
|---------------------------|
|-4-3-3-6--4-3-3-6--4-3-3-6-|
|-4--------4--------4-------|
|-4-3-3-6--4-3-3-6--4-3-3-6-|

play 3 times
|-----------------------|
|-----------------------|
|-----------------------|
|---5-6-6-7-7-5-6-6-7-7-|
|---5-------7-5-------7-|
|---5-6-6-7-7-5-6-6-7-7-|

play 10 times
|---------------------------|
|---------------------------|
|---------------------------|
|-4-3-3-6--4-3-3-6--4-------|
|-4--------4----------------|
|-4-3-3-6--4-3-3-6--4-3-3-6-|
Tap to rate this tab
# A B C D E F G H I J K L M N O P Q R S T U V W X Y Z