Song name
# A B C D E F G H I J K L M N O P Q R S T U V W X Y Z

Misc Unsigned Bands - Infektyd - Bleed For Me tab

Guitar #1: Acoustic
Guitar #2: Electric (with distortion)

INTRO- Guitar#1
|--2----------2-------2----------------2----------|
|--------0----------------0------- 0--------------|
|-------------------------------0-----------------|
|----------------------------------------------- -| x2
|-------------------------------------------------|
|-------------------------------------------------|

Guitar#2
|-----------------------------------------------------------|
|-----------------------------------------------------------|
|-----------------------------------------------------------|
|-----------------------------------------------------------| x4
|-------------0----------------------0------3----0----------|
|----2-2-------------2-2-------2-------------------------2-2|

|-----------------------------------------------------------|
|-----------------------------------------------------------|
|-----------------------------------------------------------|
|-----------------------------------------------------------| x4
|-----------------------------------------------------------|
|-----0----2--0--2---0--2--0--2--3--0--2-2------------------|

CHORUS #1    (Both guitars play at once)
Guitar #1

|-------------------------------------------------|
|-------------------------------------------------|
|-------------------------------------------------|
|-------------------------------------------------|
|---2-22-2-22---3-33-3-33---5-55-5-55---3-33-3-33-|
|---0-00-0-00---0-00-0-00---0-00-0-00---0-00-0-00-|

Guitar#2
|---------------------------------------------------------|
|---------------------------------------------------------|
|---------------------------------------------------------|
|---------------------------------------------------------| 
|-------------0----------------------0------3----0--------|
|----2-2-------------2-2-------2----------------------2-2-|

|-------------------------------------------------------------------------|
|-------------------------------------------------------------------------|
|-------------------------------------------------------------------------|
|-------------------------------------------------------------------------| 
|-------------------------------------------------------------------------|
|----2----0--0---3---2--0--0----2----0---0-----3----2---0---0-------------|






|---------------------------------------------------------------|
|---------------------------------------------------------------|
|---------------------------------------------------------------|
|---------------------------------------------------------------| 
|-------------0----------------------0------3----0--------------|
|----2-2-------------2-2-------2-------------------------2-2----|

|-------------------------------------------------------|
|-------------------------------------------------------|
|-------------------------------------------------------|
|-------------------------------------------------------| 
|-------------------------------------------------------|
|-----0---2---0----2---0----2---0----2---3----0----2-2--|

|----------------------------------------------------------------|
|----------------------------------------------------------------|
|----------------------------------------------------------------|
|----------------------------------------------------------------|  x2
|-------------0----------------------0------3----0---------------|
|----2-2-------------2-2-------2-------------------------2-2-----|


|------------------------------------------------------|
|------------------------------------------------------|
|------------------------------------------------------|
|------------------------------------------------------| 
|------------------------------------------------------|
|-----0---2---0----2-----0----2----0-----2--3--0--2-2--|


CHORUS #2
Guitar #1

|------------------------------------------------------------|
|------------------------------------------------------------|
|------------------------------------------------------------|
|------------------------------------------------------------|
|---2-22-2-22---3-33-3-33---5-55-5-55---3-33-3-33------------|
|---0-00-0-00---0-00-0-00---0-00-0-00---0-00-0-00------------|

Guitar#2
|----------------------------------------------------------------|
|----------------------------------------------------------------|
|----------------------------------------------------------------|
|----------------------------------------------------------------| 
|-------------0----------------------0------3----0---------------|
|----2-2-------------2-2-------2-------------------------2-2-----|


|-------------------------------------|
|-------------------------------------|
|-------------------------------------|
|-------------------------------------| 
|-----2---0---0-----2-----0-----0-----|


Tap to rate this tab
 
# A B C D E F G H I J K L M N O P Q R S T U V W X Y Z