Song name
# A B C D E F G H I J K L M N O P Q R S T U V W X Y Z

Misc Unsigned Bands - S-man And Levi - This Dream tab

-------------------------------------------------------------------------------
			     This dream - S-man and levi
-------------------------------------------------------------------------------
Tabbed by:emo_kid1969
Email:levi_bourque@hotmail.com

Tuning:

e|--------------------------------------------------------------------------|
B|--------------------------------------------------------------------------|
G|--------------------------------------------------------------------------|
D|-------------------------------99999999----------55555555-----------------|
A|77777777--------33333333-------77777777 55555555-33333333-99999999--------|
E|--------33333333--------7777777-------- 33333333----------77777777--------|
  p
e|--------------------------------------------------------------------------|
B|--------------------------------------------------------------------------|
G|--------------------------------------------------------------------------|
D|--9---9-9-------------5---5-5---------------------------------------------|
A|7---7--7----5---5-5-3---3--3----9---9-9-----------------------------------|
E|----------3---3--3------------7---7--7------------------------------------|

e|--------------------------------------------------------------------------|
B|--------------------------------------------------------------------------|
G|--------------------------------------------------------------------------|
D|--9---9-9-------------5---5-5---------------------------------------------|
A|7---7--7----5---5-5-3---3--3----9---9-9-----------------------------------|
E|----------3---3--3------------7---7--7------------------------------------|
Tap to rate this tab
# A B C D E F G H I J K L M N O P Q R S T U V W X Y Z