Guitaretab - guitar tabs
Song name
# A B C D E F G H I J K L M N O P Q R S T U V W X Y Z

Misc Unsigned Bands - Dicks In The Sun - Poison Bee Sting tab

play 1 time
----------------------------|
----------------------------|
-----5-----7--7---6-7-6-----|
--5--5--7--7--7---6-6-7-6-6-|
--4--4--6--6--6---5-5-6-5-5-|
--0-----0-----0---0-----0-0-|

play 13 times
---------------------|
---------------------|
-5-7-6-------5---7-7-|
-5-7-6-6-6-5-5-7-7-7-|
-4-6-5-5-5-4-4-6-6-6-|
-------0-0-0---0-----|

play 5 times
----------------------------|
----------------------------|
-----5-----7--7---6-7-6-----|
--5--5--7--7--7---6-6-7-6-6-|
--4--4--6--6--6---5-5-6-5-5-|
--0-----0-----0---0-----0-0-|

play 6 times
---------------------|
---------------------|
-5-7-6-------5---7-7-|
-5-7-6-6-6-5-5-7-7-7-|
-4-6-5-5-5-4-4-6-6-6-|
-------0-0-0---0-----|
[ Tab from: http://www.guitaretab.com/m/misc-unsigned-bands/77266.html ]
play 7 times
----------------------|
----------------------|
----5---7-----6-7-6---|
--5-5-7-7-7-6-6-7-6-6-|
--4-4-6-6-6-5-5-6-5-5-|
--0---0-----0-------0-|

play 8 times  hold the 6650 for awhile after the 8 the time
---5-7-7-------6-6--|
-5-5-7-7-6-7-7-5-6--|
-4-4-6-6-5-6-6-0-5--|
-0-------0-0-0---0--|
--------------------|
--------------------|

play 6 times
---------------------|
---------------------|
-5-7-6-------5---7-7-|
-5-7-6-6-6-5-5-7-7-7-|
-4-6-5-5-5-4-4-6-6-6-|
-------0-0-0---0-----|

play 9 times
----------------------|
----------------------|
----5---7-----6-7-6---|
--5-5-7-7-7-6-6-7-6-6-|
--4-4-6-6-6-5-5-6-5-5-|
--0---0-----0-------0-|

play 9 times each time play it quieter then before
---------------------|
---------------------|
-5-7-6-------5---7-7-|
-5-7-6-6-6-5-5-7-7-7-|
-4-6-5-5-5-4-4-6-6-6-|
-------0-0-0---0-----|
Related for Dicks In The Sun - Poison Bee Sting tab
Advertisement will be closed in 10 seconds