Song name
# A B C D E F G H I J K L M N O P Q R S T U V W X Y Z

Misc Unsigned Bands - Dicks In The Sun - I Really Wonder tab

I saw that somebody all ready sent in my favorite "dicks in the sun" song so I'm goin to 
in another song.

play 18 times
---------------------------|
---6---6---7---6---6---7---|
-7---5---4---5---5---4---5-|
---------------------------|
---------------------------|
---------------------------|

wait a few seconds then play 18 times
---------------------------|
---6---6---7---6---6---7---|
-7---5---4---5---5---4---5-|
---------------------------|
---------------------------|
---------------------------|

wait a few seconds then play 18 times
---------------------------|
---6---6---7---6---6---7---|
-7---5---4---5---5---4---5-|
---------------------------|
---------------------------|
---------------------------|

wait a few seconds then play 18 times
---------------------------|
---6---6---7---6---6---7---|
-7---5---4---5---5---4---5-|
---------------------------|
---------------------------|
---------------------------|

wait a few seconds then play 20 times
---------------------------|
---6---6---7---6---6---7---|
-7---5---4---5---5---4---5-|
---------------------------|
---------------------------|
---------------------------|

well thats all folks!
Tap to rate this tab
# A B C D E F G H I J K L M N O P Q R S T U V W X Y Z