Song name
# A B C D E F G H I J K L M N O P Q R S T U V W X Y Z

Misc Unsigned Bands - Infektyd - Convulsions tab

Help us improve GuitareTab! Take a short survey!
Use Distortion


Chorus/Intro
|--------------------------------------------------------------------|
|--------------------------------------------------------------------|
|--------------------------------------------------------------------|
|--------------------------------------------------------------------|x6  
|-----4---------5-----------4--------5----------------4------5-------|
|--0------------------0-----------------0--00--0--00-----------------|


|---------------------------------------------------------------|
|---------------------------------------------------------------|
|---------------------------------------------------------------|
|---------------------------------------------------------------|x3
|---------------------------------------------------------------|
|-----0--0--4--0--0--5--0--0--4-0-0--3--------------------------|


|-------------------------------------------------------------------|
|---------------------------------------5-----------4---------------|
|-------------------------------------------------------------------|
|-------------------------------------------------------------------|
|--0-0-00-0-00-0-0-0------------------------------------------------|
|--0-0-00-0-00-0-0-0-----0-0-----0-0-0------------------------------|

|-------------------------------------------------------------------|
|-------------------------------------------------------------------|
|-------------------------------------------------------------------|
|-------------------------------------------------------------------|
|---------5----------4-4-3------------------------------------------|
|---0-0-----0-0-0---------------------------------------------------|


|-------------------------------------------------------------------|
|-------------------------------------------------------------------|
|-------------------------------------------------------------------|
|-------------------------------------------------------------------|x6  
|----------4---------5-------------4--------5--------------4-----5--|
|-----0---------------------0-------------------0-00-0-00-----------|


|-------------------------------------------------------------------|
|-------------------------------------------------------------------|
|-------------------------------------------------------------------|
|-------------------------------------------------------------------|x3
|-------------------------------------------------------------------|
|-----0--0--4--0--0--5--0--0--4-0-0--3------------------------------|


|-------------------------------------------------------------------|
|-----------------------------------5-----------4-------------------|
|-------------------------------------------------------------------|
|-------------------------------------------------------------------|
|--0-0-00-0-00-0-0-0------------------------------------------------|
|--0-0-00-0-00-0-0-0-----0-0-----0-0-0------------------------------|

Chorus
|--------------------------------------------------------------------|
|--------------------------------------------------------------------|
|--------------------------------------------------------------------|
|--------------------------------------------------------------------|x6  
|-------------4---------5-----------4--------5--------------4-----5--|
|-----0------------------------0-----------------0-00-0-00-----------|


|-------------------------------------------------------------------|
|-------------------------------------------------------------------|
|-------------------------------------------------------------------|
|-------------------------------------------------------------------|x3
|-------------------------------------------------------------------|
|-----0--0--4--0--0--5--0--0--4-0-0--3------------------------------|


|-------------------------------------------------------------------|
|----------------------------------------5-----------4--------------|
|-------------------------------------------------------------------|
|-------------------------------------------------------------------|
|--0-0-00-0-00-0-0-0------------------------------------------------|
|--0-0-00-0-00-0-0-0-----0-0-----0-0-0------------------------------|

|--------------------------------------------|
|--------------------------------------------|
|--------------------------------------------|
|--------------------------------------------|
|--------------------------------------------|
|---0-0-1-0----------------------------------|

Related for Infektyd - Convulsions tab