Song name
# A B C D E F G H I J K L M N O P Q R S T U V W X Y Z

Misc Unsigned Bands - The Movement - Easy Soul tab

Intro x2

---------------------------------------------------------|
---------------------------------------------------------|
---------------------------------------------------------|
---------9------------------------------6----------------|
--7--7------7----------7---------4---4-----4--------9----|
--------------------5-----5----------------------7----7--|

chorus x4

-----------------------------------------------------------|
-----------------------------------------------------------|
--9---9--x-x-x-x-------------------6----6---x-x-x-x--------|
--9---9--x-x-x-x--7----7---x-x-----6----6---x-x-x-x---9--9-|
--7---7--x-x-x-x--7----7---x-x-----4----4---x-x-x-x---9--9-|
------------------5----5---x-x------------------------7--7-|

verse

---------------------------------------------------------|
---------------------------------------------------------|
-----9-------9----------------------------6-------6------|
---9---9---9---9--------7-------7-------6---6---6---6----|
-7-------7------------7---7---7---5---4-------4----------|
--------------------5-------5----------------------------|


------------------------7------------------------------|
-----------------------7-------------------------------|
----------------------8--------------------------------|
------9-------9------9---------------------------------|
----9---9---9---9---9----------------------------------|
--7-------7--------7-----------------------------------|
let ring           ..........................
Tap to rate this tab
# A B C D E F G H I J K L M N O P Q R S T U V W X Y Z