Song name
# A B C D E F G H I J K L M N O P Q R S T U V W X Y Z

Misc Unsigned Bands - The Perfect Failure - Oh The Irony tab

Song: Oh, The Irony
By: The Perfect Failure

Tabbed by: Michael Workman
Email: fltbrok89@hotmail

Tuning: Drop-D

I only put the lead guitar for this one because our rhythm guitarist plays close to the 
thing, and I can't remember the progression for the solo. I did put the second guitar 
for the dual part, it's at the ending.

  [INTRO] VERSE
  |     | |--->>>
e|---------------------------------------------------------------------------|
B|---------------------------------------------------------------------------|
G|---------------------------------------------------------------------------|
D|-3---5---9-----7-----5-----7-----3---5---2-----3---------------------------|
A|-3---5-----0-0---0-0---0-0---0-0---0---0---0-0---0-0-5-0-0-7-0-0-3-0-5-0---|
E|-3---5---------------------------------------------------------------------|

e|---------------------------------------------------------------------------|
B|---------------------------------------------------------------------------|
G|-----------------------------------9--7-/12--7--9-7------------------------|
D|--9-----7-----5-----7-----3---5----x--x-/x---x--x-x------------------------|
A|----0-0---0-0---0-0---0-0---0---0--7--5-/10--5--7-5------------------------|
E|---------------------------------------------------------------------------|

e|---------------------------------------------------------------------------|
B|---------------------------------------------------------------------------|
G|---------------------------------------------------------------------------|
D|--9-----7-----5-----7-----3---5---2-----3----------------------------------|
A|----0-0---0-0---0-0---0-0---0---0---0-0---0-0-5-0-0-7-0-0-3-0-5-0----------|
E|---------------------------------------------------------------------------|

e|---------------------------------------------------------------------------|
B|---------------------------------------------------------------------------|
G|-----------------------------------9--7-/12--7--9-7------------------------|
D|--9-----7-----5-----7-----3---5----x--x-/x---x--x-x------------------------|
A|----0-0---0-0---0-0---0-0---0---0--7--5-/10--5--7-5------------------------|
E|---------------------------------------------------------------------------|

POST VERSE (Play Four Times)
e|---------------------------------------------------------------------------|
B|---------------------------------------------------------------------------|
G|----------9--7-7-----------------------------------------------------------|
D|--0--0-0--x--x-x--0--0-0--8--7-7-------------------------------------------|
A|--0--0-0--7--5-5--0--0-0--8--7-7-------------------------------------------|
E|--0--0-0----------0--0-0--8--7-7-------------------------------------------|

CHORUS
e|---------------------------------------------------------------------------|
B|---------------------------------------------------------------------------|
G|---------------------------------------------------------------------------|
D|--0----5-8-7--x-x-10-8-7-8---0------------------3-----3---3-3--------------|
A|--0--0-5-8-7--x-x-10-8-7-8---0--0-0-0-0-0-0-0-0-3-0-0-3-0-3-3--------------|
E|--0--0-5-8-7--x-x-10-8-7-8---0--0-0-0-0-0-0-0-0-3-0-0-3-0-3-3--------------|

POST CHORUS (play four times)
e|---------------------------------------------------------------------------|
B|---------------------------------------------------------------------------|
G|--------------------------9---7--------------------------------------------|
D|-0-0-3-5-0-0-5-7----------x-8-x-7------------------------------------------|
A|-0-0-3-5-0-0-5-7-0-0-0-0--7-8-5-7------------------------------------------|
E|-0-0-3-5-0-0-5-7-0-0-0-0----8---7------------------------------------------|

PREVERSE
e|---------------------------------------------------------------------------|
B|---------------------------------------------------------------------------|
G|---------------------------------------------------------------------------|
D|--0----------3---5---------------------------------------------------------|
A|--0----------3---5---------------------------------------------------------|
E|--0----------3---5---------------------------------------------------------|


PRESOLO (play twice)
e|---------------------------------------------------------------------------|
B|---------------------------------------------------------------------------|
G|------5-7------------------------------------------------------------------|
D|--0-0-x-x---------------------8-----8--------------------------------------|
A|--0-0-3-5-0-0-0-0-0-0-0-0--------------------------------------------------|
E|--0-0-----0-0-0-0-0-0-0-0-8-8---8-8----------------------------------------|
                            x x   x x

e|---------------------------------------------------------------------------|
B|---------------------------------------------------------------------------|
G|------5-7------------------------------------------------------------------|
D|--0-0-x-x-------------8-----8-----7-----7----------------------------------|
A|--0-0-3-5-0-0-0-0----------------------------------------------------------|
E|--0-0-----0-0-0-0-8-8---8-8---7-7---7-7------------------------------------|
                    x x   x x   x x   x x

SOLO
e|---------------------------------------------------------------------------|
B|---------------------------------------------------------------------------|
G|-------5~p0`--7~---/9-7-5-7-5-3-2-0--------5~5`----7~---/9-7-5-7-5-3-2-0---|
D|--7~----------------------------------7~-----------------------------------|
A|---------------------------------------------------------------------------|
E|---------------------------------------------------------------------------|
                                               +

e|---------------------------------------------------------------------------|
B|---------------------------------------------------------------------------|
G|----------------------7^-7~p5------7p5-----7p5-----7p5-----7p5-------------|
D|--8-7-5-7-5-3-2-0-------------7-5------7p5-----7p5-----7p5-----7p5---------|
A|---------------------------------------------------------------------------|
E|---------------------------------------------------------------------------|

e|----------------------------------------------------------------------------|
B|----------------------------------------------------------------------------|
G|---------5-7---9-7-5------------------------------------------------5h7-7^--|
D|--7~-5-7-------------9-7-5--------------------------5-----------5h7---------|
A|---------------------------8-7-5----------5~--8-7-5---8--7--5h7-------------|
E|---------------------------------10-8-7---0~--------------------------------|
                 [-3-] [-3-] [-3-] [--3-]       x x x   x  x------------------|              +

e|-----------------------------------------------------10-----------10-------|
B|--------------------------------------10h12h13~---------13p10--------13p10-|
G|--7-5-------------------------9h10h12------------12^----------12^----------|
D|------7-5`------------9h10h12----------------------------------------------|
A|-------------10h12h14------------------------------------------------------|
E|---------------------------------------------------------------------------|
          +

e|--15p13p12----13p12--------------------------------------------------------|
B|-----------15-------15p13-15~-13~-15.-13.-12.-10.--------------------------|
G|---------------------------------------------------------------------------|
D|---------------------------------------------------------------------------|
A|---------------------------------------------------------------------------|
E|---------------------------------------------------------------------------|


e|--T17p12h13-T17p12h13-T17p12h13-T17p12h13----------------------------------|
B|---------------------------------------------------------------------------|
G|---------------------------------------------------------------------------|
D|---------------------------------------------------------------------------|
A|---------------------------------------------------------------------------|
E|---------------------------------------------------------------------------|


e|--T19p12h13-T19p12h13-T19p12h13-T19p12h13----------------------------------|
B|----------------------------------------------------10-13-12-10-8----------|
G|--------------------------------------------9-10-12------------------------|
D|---------------------------------------------------------------------------|
A|---------------------------------------------------------------------------|
E|---------------------------------------------------------------------------|

e|-------------10------------------------------------------------------------|
B|----------10----13-12-10---------------------------------------------------|
G|--9-10-12------------------------------------------------------------------|
D|---------------------------------------------------------------------------|
A|---------------------------------------------------------------------------|
E|---------------------------------------------------------------------------|

DUAL (Rhythm part included at bottom)
e|----------------------------------------------------------------------------|
B|----------10-13.-12-10-12.-10-8-10.-8-6----------10-13.-12-10---------------|
G|--9h10h12--------------------------------9-10-12----------------------------|
D|----------------------------------------------------------------------------|
A|----------------------------------------------------------------------------|
E|----------------------------------------------------------------------------|


e|---------------------------------------------------------------------------|
B|--15.-13-12-13.-12-10------------------------------------------------------|
G|---------------------------------------------------------------------------|
D|---------------------------------------------------------------------------|
A|---------------------------------------------------------------------------|
E|---------------------------------------------------------------------------|

BREAK (play twice)
e|-------------------|
B|-------------------|
G|-------------------|
D|--0----5-8-7-------|
A|--0--0-5-8-7-------|
E|--0--0-5-8-7-------|


(LOW PART FOR DUAL)
e|----------------------------------------------------------------------------|
B|----------------------------------------------------------------------------|
G|----------------------------------------------------------------------------|
D|---------8-10.-8-7-8.-7-5-7.-5-3----------8-10.-8-7-12.-10-8.-8-7-----------|
A|--7h8h10--------------------------7h8h10------------------------------------|
E|----------------------------------------------------------------------------|


:SONG ORDER:
INTRO/VERSE
POST VERSE
CHORUS
POST CHORUS
PREVERSE
VERSE
POST VERSE
CHORUS
PRE SOLO
SOLO
DUAL
BREAK
CHORUS
Hit Open D5, let ring
Staccato Open D5


| /  slide up
| \  slide down
| h  hammer-on
| p  pull-off
| ~  vibrato
| +  harmonic
| x  Mute note
| `  dive bomb
| ^  bend
| .  dotted note
| T  tap
| [-3-] triplet

:LYRICS:
i cant stand this anymore
i cant take it
the lies youve fed me
are now all dying
you wont be here for tomorrow
and i'll make sure it stays that way

its so hard to see blinded by lies
you lied i cant believe i loved you
but the irony of the way you die
is i never had to fucking touch you

cant you see what youve done
or what youve killed
youve made a mess of all i knew
your fate is near as your eyelids close
now i see that dreams come true

its so hard to see blinded by lies
you lied i cant believe i loved you
but the irony of the way you die
is i never even had to touch you

its so hard to see blinded by lies
you lied i cant believe i loved you
but the irony of the way you die
is i never had to fucking touch you
Tap to rate this tab
 
# A B C D E F G H I J K L M N O P Q R S T U V W X Y Z