Song name
# A B C D E F G H I J K L M N O P Q R S T U V W X Y Z

Misc Unsigned Bands - The Scorching Todds - Come Back To The Jungle tab

(Keyboard)

Intro:

e---------|
b---------|
G---------|
D---------|
A-2-3-5-0-|
E----3----|

Verse

e----------------------------------------------|
b----------------------------------------------|
G----0--------5--------0--------7--------------|
D---2-2-2----5-5-5----5-5-5----7-7-7-  Repeat--| x3
A--2---2-2--3---3-3--5---5-5--5---5-5----------|
E-0--------0--------3--------0-----------------|

Chorus

e---------------------------------------------------------------------|
b---------------------------------------------------------------------|
G------------------5555555555555555------------------7777777777777777-|
D-2222222222222222-5555555555555555-5555555555555555-7777777777777777-| Repeat
A-2222222222222222-3333333333333333-5555555555555555-5555555555555555-|
E-----------------------------------3333333333333333------------------|

Post-Chorus

e-------------------------------------|
b-------------------------------------|
G----------55555555----------77777777-|
D-22222222-55555555-55555555-77777777-|  Repeat
A-22222222-33333333-55555555-55555555-|
E-------------------33333333----------|

Verse

Chorus

Post-Chorus

Ending:

e-------------------------------------|
b-------------------------------------|
G----0--------5--------0--------7-----|
D---2-2-2----5-5-5----5-5-5----7-7-7--|
A--2---2-2--3---5-5--5---5-5--5---5-5-|
E-0--------0--------3--------0--------|

e----------------------------------------------------------------------------|
b----------------------------------------------------------------------------|
G----0--------5--------0--------7--------------------------------------------|
D---2-2-2----5-5-5----5-5-5----7-7-7-----------------------------------------|
A--2---2-2--3---3-3--5---5-5--5---5-5--5-3-2-3-2-0---------------------------|
E-0--------0--------3--------0---------------------3-------------------------|
Tap to rate this tab
 
# A B C D E F G H I J K L M N O P Q R S T U V W X Y Z