Song name
# A B C D E F G H I J K L M N O P Q R S T U V W X Y Z

Misc Unsigned Bands - Caffeine Free Cats - A Pig Named Bambi tab

ok this is a super song.

Caffeine Free Cats - A Pig Named Bambi

Intro/Verse pm play 3 times
|---------------|
|---------------|
|---------------|
|----4----5-5---|
|-4--5--5-6-6-5-|
|-5-----6-----4-|

Verse: play 5 times
|-------------|
|-------------|
|-------------|
|---4---5-5---|
|-4-5-5-6-6-5-|
|-5---6-----4-|

Chorus: pm play 3 times
|-------------------|
|-------------------|
|-------------------|
|-----5-5---4---5-5-|
|-4-4-6-6-4-5-5-6-6-|
|-5-5-----5---6-----|

Verse: play 5 times
|-------------|
|-------------|
|-------------|
|---4---5-5---|
|-4-5-5-6-6-5-|
|-5---6-----4-|

Chorus: pm play 3 times
|-------------------|
|-------------------|
|-------------------|
|-----5-5---4---5-5-|
|-4-4-6-6-4-5-5-6-6-|
|-5-5-----5---6-----|

Verse: play 5 times
|-------------|
|-------------|
|-------------|
|---4---5-5---|
|-4-5-5-6-6-5-|
|-5---6-----4-|

Chorus: pm play 3 times
|-------------------|
|-------------------|
|-------------------|
|-----5-5---4---5-5-|
|-4-4-6-6-4-5-5-6-6-|
|-5-5-----5---6-----|

Verse: play 5 times
|-------------|
|-------------|
|-------------|
|---4---5-5---|
|-4-5-5-6-6-5-|
|-5---6-----4-|

Chorus: pm play 3 times
|-------------------|
|-------------------|
|-------------------|
|-----5-5---4---5-5-|
|-4-4-6-6-4-5-5-6-6-|
|-5-5-----5---6-----|

Verse: play 5 times
|-------------|
|-------------|
|-------------|
|---4---5-5---|
|-4-5-5-6-6-5-|
|-5---6-----4-|

Chorus: pm play 3 times
|-------------------|
|-------------------|
|-------------------|
|-----5-5---4---5-5-|
|-4-4-6-6-4-5-5-6-6-|
|-5-5-----5---6-----|

Outro:
|------------------------|
|------------------------|
|------------------------|
|----4-----5---5---------|
|-4--5--5--6---6-----5-5-|
|-5-----6------------4-4-|

These guys haven't played outside of kansas but I still think they are good.
Tap to rate this tab
# A B C D E F G H I J K L M N O P Q R S T U V W X Y Z