Song name
# A B C D E F G H I J K L M N O P Q R S T U V W X Y Z

Misc Unsigned Bands - Thrash - 13 Years tab

-------------------------------------------------------------------------------
			     13 Years - Thrash
-------------------------------------------------------------------------------
Tabbed by: Nick Johnson

  Intro & Chorus             (this is also the verse)
e|---------------------------|-------------|
B|-1-3-3-1--1-3-3-1--1-3-3-1-|-------------|
G|---------------------------|-------------|
D|---------------------------|0-0-0--0-0-0-| x2
A|---------------------------|2-3-4--4-3-2-|
E|---------------------------|-------------|

  Solo
e|--------------------------------------------19-19-17-----------|
B|--3-----------------------------16-17h19-19----------16--------|
G|-----12h14-14----------16-----16------------------------17-----|
D|--------------14-14--15--17-15-----------------------------18--|
A|---------------------------------------------------------------|
E|---------------------------------------------------------------|

e|--------------------------------|
B|----------------21-21-21-21-21--|
G|----20--------------------------|
D|-19----21-19-21-----------------|
A|--------------------------------|
E|--------------------------------|

Just Personal Message me if you want the lyrics.


| /  slide up
| \  slide down
| h  hammer-on
| p  pull-off
| ~  vibrato
| +  harmonic
| x  Mute note
===============================================================================
Tap to rate this tab
# A B C D E F G H I J K L M N O P Q R S T U V W X Y Z