Song name
# A B C D E F G H I J K L M N O P Q R S T U V W X Y Z

Misc Unsigned Bands - Thrash - My Big Ass Cadillac tab

-------------------------------------------------------------------------------
		       My Big Ass Cadillac - Thrash
-------------------------------------------------------------------------------
Tabbed by: Nick Johnson

  Intro
e|--------------------------------------------------|
B|-7-7-8-7-8--3-4-3-4-3-3/5-5-5-6-5-6-5--5-6-5-6-6--|
G|-7-7-7-7-7--3-3-3-3-3-3/5-5-5-5-5-5-5--5-5-5-5-5--|
D|-7----------3---------3/5-5-----------------------|
A|--------------------------------------------------|
E|--------------------------------------------------|

  Verse
e|-5-5-3--------|
B|-5-5-3--------|
G|--------7-7-5-|
D|--------7-7-5-|
A|--------------|
E|--------------|

  Chorus
e|-0-0-0-0-0-0-0-0--|
B|-4-4-4-4-4-4-4-4--|
G|------------------|
D|------------------|
A|------------------|
E|------------------|

  Solo
e|-----------------------------------------------------------7------|
B|-------------------------------------------14----------8-9---9-8--|
G|---------7-8-9-8-7------------------------------------9-----------|
D|-----6-9-----------9-8-6-5---------------------------9------------|
A|-5--6----------------------7-6-4---------------17-10--------------|
E|---4-----------------------------7-6-4-3--------------------------|

e|-----------------------------7------7------7-|
B|------------------------9-11---9-11---11-9---|
G|-9-8-6----------------8----------------------|
D|-------9-8-6-5-------------------------------|
A|---------------------------------------------|
E|---------------3-2-3-------------------------|



| /  slide up
| \  slide down
| h  hammer-on
| p  pull-off
| ~  vibrato
| +  harmonic
| x  Mute note
===============================================================================
Tap to rate this tab
# A B C D E F G H I J K L M N O P Q R S T U V W X Y Z