Song name
# A B C D E F G H I J K L M N O P Q R S T U V W X Y Z

Misc Unsigned Bands - Dayvs Band - Rawr tab

d|------------------------|
a|------------------------|
f|------------------------|
c|4--767----4--767--------|x4
g|------4-----------------|
C|----------------7-------|

d|----------not-tremello----------------|
a|---------------but--------------------|
f|---------play-kinda-fast--------------|
c|8888868-------------------------------|x2
g|-------99998899669988998889(11)989----|
C|--------------------------------------|

d|--------------------------------------|
a|--------------------------------------|
f|-----------tremello-all-that----------|
c|--989-989-989-89(11)989---------------|x2
g|11---7-------6------------------------|
C|---------9----------------------------|

d|----------------------------------------------|
a|----------------------------------------------|
f|--------------------6-66666/88----------------|
c|6-66666/9-2---------6-66666/88------9--8--9---|x2
g|6-6666----2---2-1-2-4-44444/66-66666-66-66----|
C|4-4444----0-00-0-0----------------------------|

d|--------------------------------------|
a|--------------------------------------|
f|-----------termelo-all-that-----------|
c|--989-989-989-89(11)989---------------|x2
g|11---7-------6------------------------|
C|---------9----------------------------|

d|--------------------------------------|
a|--------------------------------------|
f|--------------------------------------|
c|----------palm-mute-all-that----------|x5
g|-------------an-play-fast-------------|
C|444444447777777700000000--------------|

d|--------------------------------------|
a|--------------------------------------|
f|-----------termelo-all-that-----------|
c|--989-989-989-89(11)989---------------|x2
g|11---7-------6------------------------|
C|---------9----------------------------|

d|--------------------------------------|
a|--------------------------------------|
f|--------------------------------------|
c|----------palm-mute-all-that----------|x5
g|-------------an-play-fast-------------|
C|444444447777777700000000--------------|


d|----------------------------------------------|
a|----------------------------------------------|
f|--------------------6-66666/88----------------|
c|6-66666/9-2---------6-66666/88------9--8--9---|x2
g|6-6666----2---2-1-2-4-44444/66-66666-66-66----|
C|4-4444----0-00-0-0----------------------------|

d|--------------------------------------|
a|--------------------------------------|
f|--------------------------------------|
c|----------palm-mute-all-that----------|x5
g|-------------an-play-fast-------------|
C|444444447777777700000000--------------|

d|--------------------------------------|
a|--------------------------------------|
f|-----------termelo-all-that-----------|
c|--989-989-989-89(11)989---------------|x2
g|11---7-------6------------------------|
C|---------9----------------------------|

d|--------------------------------------|
a|--------------------------------------|
f|--------------------------------------|
c|----------palm-mute-all-that----------|x5
g|-------------an-play-fast-------------|
C|444444447777777700000000--------------|
Tap to rate this tab
# A B C D E F G H I J K L M N O P Q R S T U V W X Y Z