Song name
# A B C D E F G H I J K L M N O P Q R S T U V W X Y Z

Misc Unsigned Bands - Placid Summer - Always Comes Back tab

Help us improve GuitareTab! Take a short survey!
Song: Always Comes Back
Artist: Placid Summer
1st guitar-Acoustic
2nd Guitar-Electric (some Distortion)

1st Guitar ( Play this Through the whole song, even during solo)
E/-----3--3--3--3--3--3--3---2--2--2--2--2--2--2---2--2--2--2--2--2--2---0--0--0--0--0--0--0--/
B/-----3--3--3--3--3--3--3---2--2--2--2--2--2--2---3--3--3--3--3--3--3---0--0--0--0--0--0--0--/
G/-----4--4--4--4--4--4--4---3--3--3--3--3--3--3---4--4--4--4--4--4--4---1--1--1--1--1--1--1--/
D/-----5--5--5--5--5--5--5---4--4--4--4--4--4--4---4--4--4--4--4--4--4---2--2--2--2--2--2--2--/
A/-----5--5--5--5--5--5--5---4--4--4--4--4--4--4---2--2--2--2--2--2--2---2--2--2--2--2--2--2--/
E/-----3--3--3--3--3--3--3---2--2--2--2--2--2--2---x--x--x--x--x--x--x---0--0--0--0--0--0--0--/

2nd Guitar
Verse 1-play once   Verse 2-x3
E/----3---------------------2---------------------2---------------------0--------------------/
B/----3---------------------2---------------------3---------------------0--------------------/
G/----4---------------------3---------------------4---------------------1--------------------/
D/----5---------------------4---------------------4---------------------2--------------------/
A/----5---------------------4---------------------2---------------------2--------------------/
E/----3---------------------2---------------------x---------------------0--------------------/

Chorus
E/-----3--3--3--3--3--3--3---2--2--2--2--2--2--2---2--2--2--2--2--2--2---0--0--0--0--0--0--0--/
B/-----3--3--3--3--3--3--3---2--2--2--2--2--2--2---3--3--3--3--3--3--3---0--0--0--0--0--0--0--/
G/-----4--4--4--4--4--4--4---3--3--3--3--3--3--3---4--4--4--4--4--4--4---1--1--1--1--1--1--1--/
D/-----5--5--5--5--5--5--5---4--4--4--4--4--4--4---4--4--4--4--4--4--4---2--2--2--2--2--2--2--/
A/-----5--5--5--5--5--5--5---4--4--4--4--4--4--4---2--2--2--2--2--2--2---2--2--2--2--2--2--2--/
E/-----3--3--3--3--3--3--3---2--2--2--2--2--2--2---x--x--x--x--x--x--x---0--0--0--0--0--0--0--/

Solo
E/------7---7----10---9---9----10---12---14---15---14---12---10---12---7--/
B/------------------------------------------------------------------------/
G/------------------------------------------------------------------------/
D/------------------------------------------------------------------------/
A/------------------------------------------------------------------------/
E/------------------------------------------------------------------------/ (x2)

E/----7--9---10--9--7--6---7--9--10--9--7----6---7--7---9---10--9--7---7-9-10-9-7-9-10-9-7-9-10-12-14-15--/
B/--------------------------------------------------------------------------------------------------------/
G/--------------------------------------------------------------------------------------------------------/
D/--------------------------------------------------------------------------------------------------------/
A/--------------------------------------------------------------------------------------------------------/
E/--------------------------------------------------------------------------------------------------------/

E/------7---7----10---9---9----10---12---14---15---14---12---10---12---7---------------/
B/-------------------------------------------------------------------------------------/
G/-------------------------------------------------------------------------------------/
D/-------------------------------------------------------------------------------------/
A/-------------------------------------------------------------------------------------/
E/-------------------------------------------------------------------------------------/

The End, Enjoy
Related for Placid Summer - Always Comes Back tab