Song name
# A B C D E F G H I J K L M N O P Q R S T U V W X Y Z

Misc Unsigned Bands - Shock Stars - Stop Dancing tab

okay this is my first tab so be gentle. Plus I suck at da geee-tar. But here goes. 

-----------------------------------------------------------------------------
			     Stop Dancing- Shock Stars
-----------------------------------------------------------------------------
Tabbed by: Gamedr114
Email: Gamedr114@yahoo.com

Tuning: eadgbe


Verse 1

e|----------------------------------------------------------------|
B|----------------------------------------------------------------|
G|----------------------------------------------------------------|
D|-6--6-6-----9--9-9-----6--6-6-----9--9-9-----6--6-6-----9--9-9--|
A|-6--6-6-----9--9-9-----6--6-6-----9--9-9-----6--6-6-----9--9-9--|
E|-4--4-4-----7--7-7-----4--4-4-----7--7-7-----4--4-4-----7--7-7--|

e|------------------------------------|
B|------------------------------------|
G|------------------------------------|
D|-8--8--8--8--8--8--7--7--7--7--7--7-|
A|-8--8--8--8--8--8--7--7--7--7--7--7-|play 
E|-6--6--6--6--6--6--5--5--5--5--5--5-| x2

Chorus

e|----------------------------------------------------------------|
B|----------------------------------------------------------------|
G|----------------------------------------------------------------|
D|-6--6-6-----9--9-9-----6--6-6-----9--9-9-----6--6-6-----9--9-9--|
A|-6--6-6-----9--9-9-----6--6-6-----9--9-9-----6--6-6-----9--9-9--|
E|-4--4-4-----7--7-7-----4--4-4-----7--7-7-----4--4-4-----7--7-7--|


e|-------------------|
B|-------------------|
G|-------------------|
D|-6--6-6-----9--9-9-|
A|-6--6-6-----9--9-9-|
E|-4--4-4-----7--7-7-|


lyrics go out for this one
e|----------------------------------------------------------------|
B|----------------------------------------------------------------|
G|----------------------------------------------------------------|
D|-6--6-6-----9--9-9-----6--6-6-----9--9-9-----6--6-6-----9--9-9--|
A|-6--6-6-----9--9-9-----6--6-6-----9--9-9-----6--6-6-----9--9-9--|
E|-4--4-4-----7--7-7-----4--4-4-----7--7-7-----4--4-4-----7--7-7--|

e|------------------------------------|
B|------------------------------------|
G|------------------------------------|
D|-8--8--8--8--8--8--7--7--7--7--7--7-|
A|-8--8--8--8--8--8--7--7--7--7--7--7-| 
E|-6--6--6--6--6--6--5--5--5--5--5--5-| 


verse 2

e|----------------------------------------------------------------|
B|----------------------------------------------------------------|
G|----------------------------------------------------------------|
D|-6--6-6-----9--9-9-----6--6-6-----9--9-9-----6--6-6-----9--9-9--|
A|-6--6-6-----9--9-9-----6--6-6-----9--9-9-----6--6-6-----9--9-9--|
E|-4--4-4-----7--7-7-----4--4-4-----7--7-7-----4--4-4-----7--7-7--|

e|------------------------------------|
B|------------------------------------|
G|------------------------------------|
D|-8--8--8--8--8--8--7--7--7--7--7--7-|
A|-8--8--8--8--8--8--7--7--7--7--7--7-|play 
E|-6--6--6--6--6--6--5--5--5--5--5--5-| x2


play chorus twice



now im gettin lazy so this is the bridge notes thingy. Figure out the 
strum pattern by listenin to the song. 

e|-------------------------------|
B|-------------------------------|
G|-9----4----6----2--------------|
D|-9----4----6----4--------------|
A|-7----2----4----4--------------|
E|-------------------------------| play x3



lyrics out again

e|----------------------------------------------------------------|
B|----------------------------------------------------------------|
G|----------------------------------------------------------------|
D|-6--6-6-----9--9-9-----6--6-6-----9--9-9-----6--6-6-----9--9-9--|
A|-6--6-6-----9--9-9-----6--6-6-----9--9-9-----6--6-6-----9--9-9--|
E|-4--4-4-----7--7-7-----4--4-4-----7--7-7-----4--4-4-----7--7-7--|

e|------------------------------------|
B|------------------------------------|
G|------------------------------------|
D|-8--8--8--8--8--8--7--7--7--7--7--7-|
A|-8--8--8--8--8--8--7--7--7--7--7--7-| 
E|-6--6--6--6--6--6--5--5--5--5--5--5-| 


play chorus x2

then finish with one more verse and hit 466 at the very end voila! 


                                                      ~fini~

lemme noe if their is any mistakes. I'd be glad to either fix it or succumb to laziness.




| /  slide up
| \  slide down
| h  hammer-on
| p  pull-off
| ~  vibrato
| +  harmonic
| x  Mute note
=============================================================================
Tap to rate this tab
# A B C D E F G H I J K L M N O P Q R S T U V W X Y Z