Guitaretab - guitar tabs
Song name
# A B C D E F G H I J K L M N O P Q R S T U V W X Y Z

Misc Unsigned Bands - Infringe - Borne Without The N tab

Hi! This song was made by me and my bandmates for a school presentation during the 
month. Hope you like it. I'll just post the mp3 somewhere.

Earl, Arlo, Ronald, and Tristan
INFRINGE

Title: Borne without the N

Guitar 1: lead
Guitar 2: rhythm

Intro 1:
Guitar 1: (clean)
e|-------------10----------------------10------------------5-------|
B|-------10-------10----10-------10-------10----10-----5-----5---5-|
G|----------11-------11-------------11-------11----------6-----6---|
D|----12----------------------12---------------------7-------------|
A|-----------------------------------------------------------------|
E|-10----------------------10----------------------5---------------|

e|---------5-------------------7-------------7-----------3---------------3--------|
B|-----5-----5---5-------7-------7-----7-------7-----3-----3---3-----3-----3----3-|
G|-------6-----6-------7-----7-------7-----7-----------4-----4---------4-----4----|
D|---7---------------9-----9-------9-----9---------5---------------5--------------|
A|--------------------------------------------------------------------------------|
E|-5---------------7-------------7---------------3---------------3----------------|

e|-------------10----------------------10------------------5-------|
B|-------10-------10----10-------10-------10----10-----5-----5---5-|
G|----------11-------11-------------11-------11----------6-----6---|
D|----12----------------------12---------------------7-------------|
A|-----------------------------------------------------------------|
E|-10----------------------10----------------------5---------------|

e|---------5-------------------7-------------7------------------------------------|
B|-----5-----5---5-------7-------7-----7-------7----------------------------------|
G|-------6-----6-------7-----7-------7-----7--------------------------------------|
D|---7---------------9-----9-------9-----9-------55544455544455445554445555555544-|
A|-----------------------------------------------55555555555555555555555555555555-|
E|-5---------------7-------------7---------------33322233322233223332223332223322-|
                                                 ^______(32 strums in all)______^
Intro 1:
Guitar 2: (distorted)
e|----------------------------------|
B|----------------------------------|
G|----------------------------------|
D|-55544455544455445554445555555544-|
A|-55555555555555555555555555555555-|
E|-33322233322233223332223332223322-|
   ^______(32 strums in all)______^


Intro 2: (distorted)
Chords: D-A-Bm-G
Guitar 1: (not the actual strumming pattern)
e|-10--9--7--5--7--9--10--9--7-------------------|
B|--x--x--x--x--x--x---x--x--x--8--7--8--7--8--7-|
G|--7--6--4--2--4--6---7--6--4--x--x--x--x--x--x-|
D|------------------------------5--4--5--4--5--4-|
A|-----------------------------------------------|
E|-----------------------------------------------|

Intro 2: (distorted)
Guitar 2: (not the actual strumming pattern)
e|---------------------------|
B|---------------------------|
G|-7-------------------------|
D|-7--7--9--5--4--5--4--5--4-|
A|-5--5--9--5--5--5--5--5--5-|
E|----5--7--3--2--3--2--3--2-|


Verse 1: 4x all (distorted)
Guitar 1:
e|-----------------------------------------------------------------|
B|-----------------------------------------------------------------|
G|-----7-----7---7-------------------------------------------------|
D|-7-7---7-7---7-------7-----7---7-----9-----9---------7-----7---7-|
A|-5-5---5-5---5---7-7---7-7---7---9-9---9-9---9---7-7---7-7---7---|
E|-----------------5-5---5-5---5---7-7---7-7---7---5-5---5-5---5---|
pm . .   . .   .   . .   . .   .   . .   . .   .   . .   . .   .

Verse 1: 4x all (distorted)
Guitar 2: (not the actual strumming pattern)
e|------------|
B|------------|
G|-7----------|
D|-7--7--9--7-|
A|-5--5--9--7-|
E|----5--7--5-|
pm .  .  .  .


Refrain: (distorted)
Guitars 1 and 2:
e|----------------------------------------|
B|----------------------------------------|
G|-44444444--------44444444---------------|
D|-4444444455555555444444445555-7---------|
A|-2222222255555555222222225555-7-(break)-|
E|---------33333333--------3333-5---------|


Chorus: (distorted)
Guitar 1:
e|-10-10-10-10-10-10-10-10---------------------------------5-5-4-4---------|
B|-------------------------7-7-7-7-7-7-7-7-8-8-8-8-8-8-8-8---------7-7-5-5-|
G|-------------------------------------------------------------------------|
D|-------------------------------------------------------------------------|
A|-------------------------------------------------------------------------|
E|-------------------------------------------------------------------------|

e|-10-10-10-10-10-10-10-10---------------------------------5-4-------------|
B|-------------------------7-7-7-7-7-7-7-7-8-8-8-8-8-8-8-8-----7-5---------|
G|-----------------------------------------------------------------7-6-5---|
D|-----------------------------------------------------------------------7-|
A|-------------------------------------------------------------------------|
E|-------------------------------------------------------------------------|

e|-10-10-10-10-10-10-10-10---------------------------------------------4-5-|
B|-------------------------7-7-7-7-7-7-7-7-8-8-8-8-8-8-8-8---------5-7-----|
G|-----------------------------------------------------------5-6-7---------|
D|---------------------------------------------------------7---------------|
A|-------------------------------------------------------------------------|
E|-------------------------------------------------------------------------|

e|-10-10-10-10-10-10-10-10---------------------------------5---------|
B|-------------------------7-7-7-7-7-7-7-7-8-8-8-8-8-8-8-8-5-(break)-|
G|-------------------------------------------------------------------|
D|-------------------------------------------------------------------|
A|-------------------------------------------------------------------|
E|-------------------------------------------------------------------|

Chorus: (distorted)
Guitar 2:
e|------------------|        |---------------|
B|------------------|        |---------------|
G|-7777-------------|<-(3x)  |-7777----------|
D|-7777444455557777-|        |-7777----------|
A|-5555444455557777-|        |-5555444455557-|
E|-----222233335555-|        |-----222233335-|

[ Tab from: http://www.guitaretab.com/m/misc-unsigned-bands/77480.html ]
Verse 2: 4x all
Guitar 1:
e|-----------------------------------------------------------------|
B|-----7-----7---7-----7-----7---7-----7-----7---7-----7-----7---7-|
G|-----7-----7---7-----7-----7---7-----7-----7---7-----7-----7---7-|
D|-----------------------------------------------------------------|
A|-5-5---5-5---5---------------------------------------------------|
E|-----------------5-5---5-5---5---7-7---7-7---7---5-5---5-5---5---|
pm . .   . .   .   . .   . .   .   . .   . .   .   . .   . .   .


Verse 2: 4x all
Guitar 2: (not the actual strumming pattern)
e|------------|
B|------------|
G|-7----------|
D|-7--7--9--7-|
A|-5--5--9--7-|
E|----5--7--5-|
pm .  .  .  .

Repeat Refrain and Chorus

Pre-Solo: (distorted)
Guitars 1 and 2:
e|------------------|
B|------------------|
G|-7777-------------|<-(2x)
D|-7777777755557777-|
A|-5555777755557777-|
E|-----555533335555-|

Solo: (yeah baby! Hehe)
Guitar 1:
e|-------------------------------------9h10-|
B|-------------------------------10h12------|
G|-----------------------9h11h12------------|
D|---------------9h11h12--------------------|
A|-------9h10h12----------------------------|
E|-10h12------------------------------------|

e|-12-12-12/14-12-10-9-12-10-10-10/12-10-9-7-|
B|-------------------------------------------|
G|-------------------------------------------|
D|-------------------------------------------|
A|-------------------------------------------|
E|-------------------------------------------|

e|------------------------------------------------9-10-|
B|-10---------------------------------------10-12------|
G|----12-12-12-11-11-11-12-12-12-11-9-11-12------------|
D|-----------------------------------------------------|
A|-----------------------------------------------------|
E|-----------------------------------------------------|

e|-9----10-9----10-9----10-9----10-9----10-9----9-|
B|---10------10------10------10------10------10---|
G|------------------------------------------------|
D|------------------------------------------------|
A|------------------------------------------------|
E|------------------------------------------------|

e|-15-14-12-12h15-14-12-10-9-------|
B|---------------------------12-10-|
G|---------------------------------|
D|---------------------------------|
A|---------------------------------|
E|---------------------------------|

e|-9----10-9----10-9----10-9----10-9----10-9----9-|
B|---10------10------10------10------10------10---|
G|------------------------------------------------|
D|------------------------------------------------|
A|------------------------------------------------|
E|------------------------------------------------|

e|----------------------------------------------------|
B|----------------------------------------------------|
G|-12-12-12-11-11-11-12-12-12-11-11-11-12-12-11-11-7~-|
D|-------------------------------------------------7~-|
A|-------------------------------------------------5~-|
E|----------------------------------------------------|


Solo: (background rhythm)
Guitar 2: (not the actual strumming pattern)
e|---------------------------|       |----|
B|---------------------------|       |----|
G|-7-------------------------|       |-7~-|
D|-7--7--9--5--4--5--4--5--4-| (2x)  |-7~-|
A|-5--5--9--5--5--5--5--5--5-|       |-5~-|
E|----5--7--3--2--3--2--3--2-|       |----|

(naa pay bajo dinhi dapita)

Bridge:
Guitar 1: (clean)
e|-------10----------------------------------------5---------|
B|----------10-----------5-------------7h8-----------5-------|
G|----11-------11----------6h7-------7-----7-----------6-----|
D|----------------12---7-------7---9---------9---7-------7---|
A|---------------------------------------------------------7-|
E|-10----------------5-----------7-------------5-------------|

e|-------10----------------------------------------5~-|
B|----------10-----------5-------------7h8------------|
G|----11-------11----------6h7-------7-----7----------|
D|----------------12---7-------7---9---------9---7----|
A|----------------------------------------------------|
E|-10----------------5-----------7-------------5------|

(naa puy bajo inig bridge)
Bridge:
Bass:
G|----14-12-11-11h12-11-----14-12-11-11h12-11-|
D|-12-----------------------------------------|
A|----------------------12--------------------|
E|--------------------------------------------|

G|----14-12-11-11h12-11-----14-12-11-12-11----|
D|-----------------------------------------12-|
A|--14------------------12--------------------|
E|--------------------------------------------|

G|----14-12-11-11h12-11-----14-12-11-11h12-11-|
D|-12-----------------------------------------|
A|----------------------12--------------------|
E|--------------------------------------------|

G|----14-12-11-11h12-11-----14-12~-|
D|---------------------------------|
A|--14------------------12---------|
E|---------------------------------|


Repeat Refrain and Chorus

[END]

-----------------------------------------------------------------------------
Lyrics:
VERSE 1:
Waking up everyday to my alarm
Going to school almost late coz I have a very slow car
I sit in the lab hearing my teacher
Say these intricate stuff I donít know what they are

REFRAIN 1:
Racking my head left and right
Understanding with all my might

CHORUS 1:
This is the subject
(That I really need to know)
Itís not just complicated
(But also cool)
Atoms, ions, molecules
(Getting smaller)
It is all part of the realm

The realm of science

VERSE 2:
Learning all these principles, laws, and theories
The eye of the storm, the cause of the tsunami
Earth sci, Gen sci, chemistry, biology
These are just parts of the study

REFRAIN 2:
Trying hard with all my might
To get these things in my mind

CHORUS 2:
This is the subject
(That I really need to know)
Itís not just complicated
(But also cool)
Learning lots of things
(Things that are quite complicated)
It is all part of the realm

The realm of science

[SOLO]

BRIDGE:
Merging Ideas and Experiences
(Exceeding Excellence)
Merging Ideas and Experiences
(Exceeding Excellence)
(Exceeding Excellence)
The realm of science
The realm of science
The realm of science

REFRAIN 2:
Trying hard with all might
To get these things in my mind

CHORUS 3:
This is the subject
(That I really need to know)
Itís not just complicated
(But also cool)
Learning lots of things
(Things that are quite complicated)
It is all part of the realm

The realm of science
Related for Infringe - Borne Without The N tab