Song name
# A B C D E F G H I J K L M N O P Q R S T U V W X Y Z

Misc Unsigned Bands - Give Em Hot Milk - The Good And The Bad tab

INTRO/VERSE (x4)
Guitar 1
e|---------------------------------------------------------|
B|---------------------------------------------------------|
G|-----4\3-----------2/4---------------------------2-------|
D|---4-----4-------4-----4---------4\2-----------4---2-----|
A|-2---------2-------------------4-----4-------4-------4---|
E|---------------2---------2---4---------4---0-----------0-|

Guitar 2
e|-----------------------------------------------------------|
B|-----------------------------------------------------------|
G|-------9--------------9------------------------------------|
D|---7------7-------7-----7-----------11--------------11-----|
A|-7---7------7---7---7-----7-----9------9-------9-------9---|
E|------------------------------9---9------9---9----9------9-|

PRE CHORUS (x2)
Guitar 1
e|-------------------|
B|-------------------|
G|-2-2-2-2---2-2-2-2-|
D|-2-2-2-2---2-2-2-2-|
A|-0-0-0-0---4-4-4-4-|
E|-0-0-0-0-----------|

Guitar 2
e|--------------------------|
B|--------------------------|
G|-11-11-11-12-----12----12-|
D|---------------12---12----|
A|--------------------------|
E|--------------------------|

CHORUS
Guitar 1
e|-----------------------0-2---------------------|
B|-5-5-4-4-5---5-5-4-4-5------------5--------5---|
G|--------------------------------5---5----5---5-|
D|------------------------------7--------7-------|
A|-----------------------------------------------|
E|-----------------------------------------------|

Guitar 2
e|-------------------------------------|
B|-------------------------------------|
G|-4-4-4-4-----------------------------|
D|-4-4-4-4---6-6-6-6---9-9-9-9-9-9-9-9-|
A|-2-2-2-2---6-6-6-6---9-9-9-9-9-9-9-9-|
E|-0-0-0-0---4-4-4-4---7-7-7-7-7-7-7-7-|

VERSE (x4)
Guitar 1
e|---------------------------------------------------------|
B|---------------------------------------------------------|
G|-----4\3-----------2/4---------------------------2-------|
D|---4-----4-------4-----4---------4\2-----------4---2-----|
A|-2---------2-------------------4-----4-------4-------4---|
E|---------------2---------2---4---------4---0-----------0-|

Guitar 2
e|-----------------------------------------------------------|
B|-----------------------------------------------------------|
G|-------9--------------9------------------------------------|
D|---7------7-------7-----7-----------11--------------11-----|
A|-7---7------7---7---7-----7-----9------9-------9-------9---|
E|------------------------------9---9------9---9----9------9-|

PRE CHORUS (x2)
Guitar 1
e|-------------------|
B|-------------------|
G|-2-2-2-2---2-2-2-2-|
D|-2-2-2-2---2-2-2-2-|
A|-0-0-0-0---4-4-4-4-|
E|-0-0-0-0-----------|

Guitar 2
e|--------------------------|
B|--------------------------|
G|-11-11-11-12-----12----12-|
D|---------------12---12----|
A|--------------------------|
E|--------------------------|

CHORUS
Guitar 1
e|-----------------------0-2---------------------|
B|-5-5-4-4-5---5-5-4-4-5------------5--------5---|
G|--------------------------------5---5----5---5-|
D|------------------------------7--------7-------|
A|-----------------------------------------------|
E|-----------------------------------------------|

Guitar 2
e|-------------------------------------|
B|-------------------------------------|
G|-4-4-4-4-----------------------------|
D|-4-4-4-4---6-6-6-6---9-9-9-9-9-9-9-9-|
A|-2-2-2-2---6-6-6-6---9-9-9-9-9-9-9-9-|
E|-0-0-0-0---4-4-4-4---7-7-7-7-7-7-7-7-|

BRIDGE
Guitar 1
e|--------------------------------------------|
B|-5/7/9--------------------------------------|
G|--------2/4/6-------------------------------|
D|--------------------3-----------------5-0---|
A|------------------3---3-----5-5-5-5-------5-|
E|----------------1---------3----------3------|

Guitar 2
e|-----------------------0-0-0-0---3-3---0-0-|
B|-----------------------1-1-1-1---3-3---3-3-|
G|-----------------------2-2-2-2---0-0---2-2-|
D|-----------------------2-2-2-2---0-0---0-0-|
A|-11-11-11---12-12-12---0-0-0-0---0-0---2-2-|
E|-9--9--9----0--0--0----0-0-0-0---3-3---0-0-|

OUTRO
(Guitar 1 0nly)
Guitar 1
e|---------------------------------------------------------|
B|---------------------------------------------------------|
G|-----4\3-----------2/4---------------------------2-------|
D|---4-----4-------4-----4---------4\2-----------4---2-----|
A|-2---------2-------------------4-----4-------4-------4---|
E|---------------2---------2---4---------4---0-----------0-|
Tap to rate this tab
# A B C D E F G H I J K L M N O P Q R S T U V W X Y Z