Song name
# A B C D E F G H I J K L M N O P Q R S T U V W X Y Z

Misc Unsigned Bands - Massive Cherrys - 69 Minutes Left tab

massive cherrys
69 minutes left
poncho pudding

Standurd Tuning
Intro/Verse 15x
|--------------------------|
|--------------------------|
|--------------------------|
|--------------------------|
|-2-5-6-6--2-5-6-6-5-6-5-6-|
|-3-4-5-5--3-4-5-5---------|

Chorus5x
|--------------------------|
|--------------------------|
|--------------------------|
|--------------------------|
|-6-5-2-2--6-5-2-2-3-2-3-2-|
|-5-4-3-3--5-4-3-3-2-3-2-3-|

Verse 10x
|--------------------------|
|--------------------------|
|--------------------------|
|--------------------------|
|-2-5-6-6--2-5-6-6-5-6-5-6-|
|-3-4-5-5--3-4-5-5---------|

Chorus5x
|--------------------------|
|--------------------------|
|--------------------------|
|--------------------------|
|-6-5-2-2--6-5-2-2-3-2-3-2-|
|-5-4-3-3--5-4-3-3-2-3-2-3-|

Solo play 8x
|-1-3-4-4--1-3-4-4-3-4-3-4-|
|-2-4-5-5--2-4-5-5---------|
|--------------------------|
|--------------------------|
|--------------------------|
|--------------------------|
then play 4x
|-4-3-1-1--4-3-4-4-5-4-5-4-|
|-5-4-2-2--5-4-5-5-4-5-4-5-|
|--------------------------|
|--------------------------|
|--------------------------|
|--------------------------|

Verse 10x
|--------------------------|
|--------------------------|
|--------------------------|
|--------------------------|
|-2-5-6-6--2-5-6-6-5-6-5-6-|
|-3-4-5-5--3-4-5-5---------|

Chorus5x
|--------------------------|
|--------------------------|
|--------------------------|
|--------------------------|
|-6-5-2-2--6-5-2-2-3-2-3-2-|
|-5-4-3-3--5-4-3-3-2-3-2-3-|

Outro
|-----------------------|
|-----------------------|
|-----------------------|
|-----------------------|
|-2-5-6-6--2-5--6--x--6-|
|-3-4-5-5--3-4--5--x--5-|
Tap to rate this tab
 
# A B C D E F G H I J K L M N O P Q R S T U V W X Y Z