Song name
# A B C D E F G H I J K L M N O P Q R S T U V W X Y Z

Misc Unsigned Bands - Among The First To Fall - Praying For Tears tab

Among the First to Fall
Praying For Tears
Drop C
industries16@wmconnect.com
myspace.com/atftfguitar2


intro/ verse 1 & 2
|-------------------------------------------------------------------|
|-------------------------------------------------------------------|
|-------------------------------------------------------------------|
|-9--9-9-9--9-9-10--10-10-10--10-10-9--9-9-9--9-9-10--10-10-12-10-9-|
|-0-0-0--0-0-0--0--0--0---0--0--0---0-0-0--0-0-0--0--0--0---0--0--0-|
|-------------------------------------------------------------------|

|-------------------------------------------------------------------|
|-------------------------------------------------------------------|
|-------------------------------------------------------------------|
|-9--9-9-9--9-9-10--10-10-10--10-10-9--9-9-9--9-9-10--10-10-12-10-9-|
|-8-8-8--8-8-8--8--8--8---8--8--8---8-8-8--8-8-8--8--8--8---8--8--8-|
|-------------------------------------------------------------------|

chorus
|--------------------------|
|--------------------------|
|-9--7-------------5-----5-|
|-7--7--10-9----3--5--3--5-|
|-7--7--7--7----3--3--3--3-|
|-7--7--7--7----3--3--3--3-|

pre-chorus
|-------------------|
|-------------------|
|-9--5--7--9--12----|
|-9--5--7--9--12--*-|
|-7--3--5--7--10--*-|
|-7--3--5--7--10--*-|

bridge
|-------------------|
|-------------------|
|-------------------|
|-7--3--5--7--10--3-|
|-7--3--5--7--10--3-|
|-7--3--5--7--10--3-|

order of song
intro x1
chorus x2
verse x1
pre-chorus x1
chorus x2
verse x1
pre-chorus x1
chorus x2
bridge x2
chorus x2
end with bridge






Tap to rate this tab
 
# A B C D E F G H I J K L M N O P Q R S T U V W X Y Z