Song name
# A B C D E F G H I J K L M N O P Q R S T U V W X Y Z

Misc Unsigned Bands - January Rising- Stand Still tab

VERSE

D----------------------------2-2-2-2-2--2-2-2-2-2-0-|
A-3-3-3-3-3--3-3-3-3-3-3-----2-2-2-2-2--2-2-2-2-2-0-|
D-5-5-5-5-5--5-5-5-5-5-5-----2-2-2-2-2--2-2-2-2-2-0-|
G-4-4-4-4-4--4-4-4-4-4-5----------------------------|
B---------------------------------------------------|
E---------------------------------------------------|

D----------------------------2-2-2-2-2--2-2-2-2-2-0-|
A-3-3-3-3-3--3-3-3-3-3-3-----2-2-2-2-2--2-2-2-2-2-0-|
D-5-5-5-5-5--5-5-5-5-5-5-----2-2-2-2-2--2-2-2-2-2-0-|
G-4-4-4-4-4--4-4-4-4-4-5----------------------------|
B---------------------------------------------------|
E---------------------------------------------------|

D----------------------------2-2-2-2-2--2-2-2-2-2-0-|
A-3-3-3-3-3--3-3-3-3-3-3-----2-2-2-2-2--2-2-2-2-2-0-|
D-5-5-5-5-5--5-5-5-5-5-5-----2-2-2-2-2--2-2-2-2-2-0-|
G-4-4-4-4-4--4-4-4-4-4-5----------------------------|
B---------------------------------------------------|
E---------------------------------------------------|

D----------------------------2-2-2-2-2--2-2-2-2-2-0-|
A-3-3-3-3-3--3-3-3-3-3-3-----2-2-2-2-2--2-2-2-2-2-0-|
D-5-5-5-5-5--5-5-5-5-5-5-----2-2-2-2-2--2-2-2-2-2-0-|
G-4-4-4-4-4--4-4-4-4-4-5----------------------------|
B---------------------------------------------------|
E---------------------------------------------------|
CHORUS

D-------------------------------------------------------------------|
A-7-7-7-7-7-7-7-7--5-5-5-5-5-5-5-5--2-2-2-2-2-2-2-2-2-2-2-2-2-2-2-2-|
D-------------------------------------------------------------------|
G-9-9-9-9-9-9-9-9--7-7-7-7-7-7-7-7--4-4-4-4-4-4-4-4-4-4-4-4-4-4-4-4-|
B-------------------------------------------------------------------|
E-------------------------------------------------------------------|

D-------------------------------------------------------------------|
A-7-7-7-7-7-7-7-7--5-5-5-5--10-10-10-10--7-7-7-7-7-7-7-7-7-7-7-7-7~-|
D-------------------------------------------------------------------|
G-9-9-9-9-9-9-9-9--7-7-7-7--12-12-12-12--9-9-9-9-9-9-9-9-9-9-9-9-9~-|
B-------------------------------------------------------------------|
E-------------------------------------------------------------------|
VERSE

D----------------------------2-2-2-2-2--2-2-2-2-2-0-|
A-3-3-3-3-3--3-3-3-3-3-3-----2-2-2-2-2--2-2-2-2-2-0-|
D-5-5-5-5-5--5-5-5-5-5-5-----2-2-2-2-2--2-2-2-2-2-0-|
G-4-4-4-4-4--4-4-4-4-4-5----------------------------|
B---------------------------------------------------|
E---------------------------------------------------|

D----------------------------2-2-2-2-2--2-2-2-2-2-0-|
A-3-3-3-3-3--3-3-3-3-3-3-----2-2-2-2-2--2-2-2-2-2-0-|
D-5-5-5-5-5--5-5-5-5-5-5-----2-2-2-2-2--2-2-2-2-2-0-|
G-4-4-4-4-4--4-4-4-4-4-5----------------------------|
B---------------------------------------------------|
E---------------------------------------------------|

D----------------------------2-2-2-2-2--2-2-2-2-2-0-|
A-3-3-3-3-3--3-3-3-3-3-3-----2-2-2-2-2--2-2-2-2-2-0-|
D-5-5-5-5-5--5-5-5-5-5-5-----2-2-2-2-2--2-2-2-2-2-0-|
G-4-4-4-4-4--4-4-4-4-4-5----------------------------|
B---------------------------------------------------|
E---------------------------------------------------|

D----------------------------2-2-2-2-2--2-2-2-2-2-0-|
A-3-3-3-3-3--3-3-3-3-3-3-----2-2-2-2-2--2-2-2-2-2-0-|
D-5-5-5-5-5--5-5-5-5-5-5-----2-2-2-2-2--2-2-2-2-2-0-|
G-4-4-4-4-4--4-4-4-4-4-5----------------------------|
B---------------------------------------------------|
E---------------------------------------------------|
CHORUS

D-------------------------------------------------------------------|
A-7-7-7-7-7-7-7-7--5-5-5-5-5-5-5-5--2-2-2-2-2-2-2-2-2-2-2-2-2-2-2-2-|
D-------------------------------------------------------------------|
G-9-9-9-9-9-9-9-9--7-7-7-7-7-7-7-7--4-4-4-4-4-4-4-4-4-4-4-4-4-4-4-4-|
B-------------------------------------------------------------------|
E-------------------------------------------------------------------|

D-------------------------------------------------------------------|
A-7-7-7-7-7-7-7-7--5-5-5-5--10-10-10-10--7-7-7-7-7-7-7-7-7-7-7-7-7~-|
D-------------------------------------------------------------------|
G-9-9-9-9-9-9-9-9--7-7-7-7--12-12-12-12--9-9-9-9-9-9-9-9-9-9-9-9-9~-|
B-------------------------------------------------------------------|
E-------------------------------------------------------------------|

OUTRO

D----------------------------2-2-2-2-2--2-2-2-2-2-0-|
A-3-3-3-3-3--3-3-3-3-3-3-----2-2-2-2-2--2-2-2-2-2-0-|
D-5-5-5-5-5--5-5-5-5-5-5-----2-2-2-2-2--2-2-2-2-2-0-|
G-4-4-4-4-4--4-4-4-4-4-5----------------------------|
B---------------------------------------------------|
E---------------------------------------------------|

D----------------------------2-2-2-2-2--2-2-2-2-2-0-|
A-3-3-3-3-3--3-3-3-3-3-3-----2-2-2-2-2--2-2-2-2-2-0-|
D-5-5-5-5-5--5-5-5-5-5-5-----2-2-2-2-2--2-2-2-2-2-0-|
G-4-4-4-4-4--4-4-4-4-4-5----------------------------|
B---------------------------------------------------|
E---------------------------------------------------|

D----------------------------2-2-2-2-2--2-2-2-2-2-0-|
A-3-3-3-3-3--3-3-3-3-3-3-----2-2-2-2-2--2-2-2-2-2-0-|
D-5-5-5-5-5--5-5-5-5-5-5-----2-2-2-2-2--2-2-2-2-2-0-|
G-4-4-4-4-4--4-4-4-4-4-5----------------------------|
B---------------------------------------------------|
E---------------------------------------------------|

D----------------------------2-2-2-2-2--2-2-2-2-2-0-|
A-3-3-3-3-3--3-3-3-3-3-3-----2-2-2-2-2--2-2-2-2-2-0-|
D-5-5-5-5-5--5-5-5-5-5-5-----2-2-2-2-2--2-2-2-2-2-0-|
G-4-4-4-4-4--4-4-4-4-4-5----------------------------|
B---------------------------------------------------|
E---------------------------------------------------|
Tap to rate this tab
 
# A B C D E F G H I J K L M N O P Q R S T U V W X Y Z