Song name
# A B C D E F G H I J K L M N O P Q R S T U V W X Y Z

Misc Unsigned Bands - Butthole - Worlds Famous Boobs tab

Intro verse
|-----------------|
|-----------------|
|-----------------|
|-----------3-3-4-|
|-3-3-3-5-5-4-4-5-|
|-4-4-4-6-6-------|
chorus
|---------------------|
|---------------------|
|---------------------|
|-3-3---5-----5---5-5-|
|-4-4-5-6-3-3-6-3-6-6-|
|-----6---4-4---4-----|
solo
|-0---0---0--6------6-----4-|
|-1-1-2-4-5--6-66--6--2-3-0-|
|------3--0---5-----7-4---0-|
|------0--0---------------0-|
|---------0---------------0-|
|---------------------------|
Tap to rate this tab
 
# A B C D E F G H I J K L M N O P Q R S T U V W X Y Z