Song name
# A B C D E F G H I J K L M N O P Q R S T U V W X Y Z

Misc Unsigned Bands - Dicks In The Sun - Pickle Juice tab

I notice that this song isn't on the album tab that someone sent in.

10x
|------------------------------|
|------------------------------|
|-3-4-4--------4--x--3-4-2---x-|
|-3-4-4--3-5-3-4--x--3-4-2-2-x-|
|-4-5-5--3-5-3-5--x--4-5-3-2-x-|
|--------4-6-4----x--------3-x-|
6x
|---------------------------|
|---------------------------|
|-3-----3-4-x-----4-2-3-3-x-|
|-3-5-4-3-4-x-2-3-4-2-3-3-x-|
|-4-5-4-4-5-x-2-3-5-3-4-4-x-|
|---6-5-----x-3-4---------x-|
10x
|------------------------------|
|------------------------------|
|-3-4-4--------4--x--3-4-2---x-|
|-3-4-4--3-5-3-4--x--3-4-2-2-x-|
|-4-5-5--3-5-3-5--x--4-5-3-2-x-|
|--------4-6-4----x--------3-x-|
6x
|---------------------------|
|---------------------------|
|-3-----3-4-x-----4-2-3-3-x-|
|-3-5-4-3-4-x-2-3-4-2-3-3-x-|
|-4-5-4-4-5-x-2-3-5-3-4-4-x-|
|---6-5-----x-3-4---------x-|

10x
|------------------------------|
|------------------------------|
|-3-4-4--------4--x--3-4-2---x-|
|-3-4-4--3-5-3-4--x--3-4-2-2-x-|
|-4-5-5--3-5-3-5--x--4-5-3-2-x-|
|--------4-6-4----x--------3-x-|
6x
|---------------------------|
|---------------------------|
|-3-----3-4-x-----4-2-3-3-x-|
|-3-5-4-3-4-x-2-3-4-2-3-3-x-|
|-4-5-4-4-5-x-2-3-5-3-4-4-x-|
|---6-5-----x-3-4---------x-|
1x
|-------------------------------------------------------|
|-------------------------------------------------------|
|-3--4-4-----------4--x--x---3---4--2----x----x-------x-|
|-3--4-4---3--5--3-4--x--x---3---4--2-2--x----x-------x-|
|-4--5-5---3--5--3-5--x--x---4---5--3-2--x----x-------x-|
|----------4--6--4----x--x------------3--x----x-------x-|
Tap to rate this tab
# A B C D E F G H I J K L M N O P Q R S T U V W X Y Z