Song name
# A B C D E F G H I J K L M N O P Q R S T U V W X Y Z

Misc Unsigned Bands - Child From The Crow - Fear Of Insects tab

Band: Child From The Crow
Song: Fear Of Insects


intro play 4 times
-|--------------------------------|--|
-|--------------------------------|--|
-|-------7---------7---7---7--7---|--|
-|-----7---7-----7---7---7--7--7--|--|
-|---5---------5------------------|--|
-|-6---------6--------------------|--|

play 4 times
-|-------------------------------------|--|
-|-------------------------------------|--|
-|-------------------------------------|--|
-|-------------------------------3-----|--|
-|-5-x-4-x-2--2-2-2--5-x-4-x-2-x-1-x-2-|--|
-|-3-x-2-x-0--0-0-0--3-x-2-x-0-x---x-0-|--|

verse
         play 4 times
-|--------------------------------|--|
-|--------------------------------|--|
-|-------7---------7---7---7--7---|--|
-|-----7---7-----7---7---7--7--7--|--|
-|---5---------5------------------|--|
-|-6---------6--------------------|--|

pre chorus

-|--------------------------------|--|
-|--------------------------------|--|
-|--------------------------------|--|
-|-----4----4-----2----2----------|--|
-|---4-----4----2----2------------|--|
-|-2-----2----0----0--------------|--|

chorus   play 4 times
-|--------------------------------|--|
-|--------------------------------|--|
-|--------------------------------|--|
-|-5-3-6-3--2--5-3-6-5------------|--|
-|-5-3-6-5--2--5-3-6-5------------|--|
-|-3-1-4-3--0--3-1-4-3------------|--|

solo
(up tempo straght away - play with an echo effect)
-|--------------------------------|--|
-|-7-----7-----7-----7---------.--|--|
-|---8-9---8-9---8-9---8-9--------|--|
-|-----------------------------.--|--|
-|--------------------------------|--|
-|--------------------------------|--|

-|----------------------------------------|--|
-|------------------------------------9-8-|--|
-|--------------------------------9-8-----|--|
-|-9-7------------------------9-8---------|--|
-|-----9-7----------------9-7-------------|--|
-|---------8b-6-8-4-6-7-9-----------------|--|
play 4 times
   \
-|--12-10---------|-|----------9b\--|--|
-|.-------12-13-.-|-|------7-9------|--|
-|----------------|-|-8-10----------|--|
-|.-------------.-|-|---------------|--|
-|----------------|-|---------------|--|
-|----------------|-|---------------|--|

outro play 2 times
-|--------------------------------|--|
-|--------------------------------|--|
-|-------7---------7---7---7--7---|--|
-|-----7---7-----7---7---7--7--7--|--|
-|---5---------5------------------|--|
-|-6---------6--------------------|--|

lyrics:

verse 1

i always knew that he be last
he always was not any bold
he always torture and eat glass
i told him that was already gold

chorus

i dont just obey
i came to stay
but his fear of insects
always made him say

go away

verse 2

he never thought that he would die
i only had to look into his eyes
he had the word fear all over
maybe i was - he is never sober


order:

intro
verse
prechorus
chorus
verse
solo
outro
Tap to rate this tab
# A B C D E F G H I J K L M N O P Q R S T U V W X Y Z