Song name
# A B C D E F G H I J K L M N O P Q R S T U V W X Y Z

Misc Unsigned Bands - Prozacltd - Alone In My Prison tab

e|-----------------------------------------------------------------------------|
b|---------0-1-0---------------------------------------------------------------|
g|--------------------------------------0h2------------------------------------|
d|-----2-----------2-----2------2h3---------3------------0-----0---------------|
a|--0-----------------0--------------------------0---3/5-----5-----------------|
E|-----------------------------------------------------------------------------|


e|-----------------------------------------------------------------------------|
b|---------0-1-0----------1----------------------------------------------------|
g|------------------------------------0----------------0-----------------------|
d|-----2---------------2----------2----------------4------0--------------------|
a|--0---------------0----------3--------3---3/5--------------------------------|
E|-----------------------------------------------------------------------------|


e|-------------------------------------------------------------------------------|
b|---------0-1-0----------0------------------------------------------------------|
g|--------------------------------------0h2--------------------------------------|
d|-----2---------------2--------2h3----------3-------------0-----0---------------|
a|--0---------------0-----------------------------0---3/5------5-----------------|
E|-------------------------------------------------------------------------------|


e|----------------------------------------------------------------------------------|
b|---------0-1-0----------1---------------------------------------------------------|
g|------------------------------------0----------------0--------0---------0---------|
d|-----2---------------2----------2----------------4--------4---------4-------------|
a|--0---------------0----------3--------3---3/5---------5---------5-----------------|
E|----------------------------------------------------------------------------------|

e|------------------------------------|
b|------------------------------------|
g|--------0--------0------------------|
d|-----4--------4--------4--0---------|
a|--5--------5--------5---------------|
E|------------------------------------|

_____________________________________________________________

e|------------------------------------------------------------------------------------|
b|-----------0-----------------------------0----------------------0-------------------|
g|--------2-----2-------------------2--2----------------------2-----2-----------------|
d|-----2-----------2-----2------2-------------2-----2-----2-----------2-----2---------|
a|--0-----------------0------3--------------------3-----0-----------------0-----------|
E|------------------------------------------------------------------------------------|

e|---------------------------------------------------------------------------------------|
b|----------------------------------------0---------------------------0------------------|
g|--------2------------2--------------2-----2--------------------2------2----------------|
d|-----0-----0-----0------0-------2------------2-----2------2-------------2-----2--------|
a|--2-----------1--------------0-------------------0------3-------------------3----------|
E|---------------------------------------------------------------------------------------|

e|----------------------------------------------------------------|
b|-----------0----------------------------------------------------|
g|--------2-----2--------------------2-------------2--------------|
d|-----2-----------2-----2-------0------0------0-----0------------| x2
a|--0-----------------0-------2-------------1---------------------|
E|----------------------------------------------------------------|

e|-----------------------------------------------------------------------------|
b|---------0-1-0---------------------------------------------------------------|
g|--------------------------------------0h2--------------------0---------------|
d|-----2-----------2-----2------2h3---------3-------------0------0-------------|
a|--0-----------------0--------------------------0---3/5-----------------------|
E|-----------------------------------------------------------------------------|

e|-----------------------------------------------------------------------|
b|---------0-1-0----------0----------------------------------------------|
g|------------------------------------0----------------0-----------------|
d|-----2------------2-------------2----------------4-----0---------------|
a|--0------------------0-------3--------3---3/5--------------------------|
E|-----------------------------------------------------------------------|

e|-----------------------------------------------------------------------------|
b|---------0-1-0---------------------------------------------------------------|
g|--------------------------------------0h2--------------------0---------------|
d|-----2-----------2-----2------2h3---------3-------------0------0-------------|
a|--0-----------------0--------------------------0---3/5-----------------------|
E|-----------------------------------------------------------------------------|

e|------------------------------------------------------------------------------------|
b|---------0-1-0----------0-----------------------------------------------------------|
g|------------------------------------0------0--0--0--0--0--0--0--0--0--0--0----------|
d|-----2------------2-------------2---------4--4--4--4--4--4--4--4--4--4--4-----------|
a|--0------------------0-------3--------3-- 5--5--5--5--5--5--5--5--5--5--5-----------|
E|------------------------------------------------------------------------------------|
Tap to rate this tab
# A B C D E F G H I J K L M N O P Q R S T U V W X Y Z