Song name
# A B C D E F G H I J K L M N O P Q R S T U V W X Y Z

Misc Unsigned Bands - Ham 70two - Defeat The Jack Rabbit Monster tab

Help us improve GuitareTab! Take a short survey!
|---------------------------------|
|---------------------------------|
|---------------------------------|
|-1-1---------4-4-1-1---------4-4-|
|-2-2-3-3-4-4-5-5-2-2-3-3-4-4-5-5-|
|-----4-4-5-5---------4-4-5-5-----|

|-----------------------------|
|-----------------------------|
|-----------------------------|
|-1-----4-4-1-1---------4-4-1-|
|-2-3-1-5-5-2-2-3-1-3-4-5-5-2-|
|---4-2---------4-2-4-5-------|

well that the song
Related for Ham 70two - Defeat The Jack Rabbit Monster tab