Song name
# A B C D E F G H I J K L M N O P Q R S T U V W X Y Z

Misc Unsigned Bands - Idiots For Sale - Always There tab

Artist: Idiots For Sale (www.myspace.com/idiots4sale)
Song: Always There
Tabbed by: Stuart XIV°

Intro
e-----------------------------------------------------------------------|
B----------1----------------0----------------1--------------------------|
G------2-----2---2------1-----1---1------0-----0---0----------0---------|
D----2---2-----2------2---2-----2------2---2-----2--------0-----0---0---|
A--0----------------2----------------3------------------2---2-----2-----|
E-----------------------------------------------------3-----------------|

e----------------------------------------------------------------|
B----------1----------------0----------------1----------1--------|
G------2-----2---2------1-----1---1------0-----0---0----0--------|
D----2---2-----2------2---2-----2------2---2-----2------0--------|
A--0----------------2----------------3------------------2--------|
E-------------------------------------------------------3--------|
Tap to rate this tab
# A B C D E F G H I J K L M N O P Q R S T U V W X Y Z