Song name
# A B C D E F G H I J K L M N O P Q R S T U V W X Y Z

Misc Unsigned Bands - Kaduke Bros - Like It Or Not tab

Intro:

e---------------------------------------------------|
B---------------------------------------------------|
G---------------------------------------------------|
D-0-3-5-------0-3-5-------0-3-5---------------------| x'2
A-------3-3-3-------3-3-3-------3-3-3--10-5-8-------|
E---------------------------------------8-3-6-------|


End:

e-------------------------|
B-------------------------|
G-------------------------| x'2
D-------------------5---7-|
A-10-5-5-5--6666--3-3-5-5-|
E--8-3-3-3--8888--1---3---|
Tap to rate this tab
# A B C D E F G H I J K L M N O P Q R S T U V W X Y Z