Song name
# A B C D E F G H I J K L M N O P Q R S T U V W X Y Z

Misc Unsigned Bands - Krauss - Ecstasy Dance tab

Ecstasy Dance by Krauss-tabbed by mesa
Verse


|--7----8-7-8-7-|-------|-------|---------|--7----8-7-8-7-|-------|--------|
|---------------|-5---8-|-------|---------|---------------|-5---8-|--------|
|---------------|-------|-------|---------|---------------|-------|--------|
|---------------|-------|-------|---------|---------------|-------|--------|
|---------------|-------|-------|---------|---------------|-------|--------|
|---------------|-------|-------|---------|---------------|-------|--------|

|----------|-5-5---------|---------|-----------|-------|-5-5--7-7------|    
|----------|-----8-8-6-6-|-5-5-----|-----------|-------|-6-6--8-8--6-6-|   
|----------|-------------|-----7-7-|-----------|-------|-----------7-7-|
|----------|-------------|---------|-----------|---7-6-|---------------|
|----------|-------------|---------|-5-7-----8-|-5-----|---------------|
|----------|-------------|---------|-----------|-------|---------------|

|------------|--------|verse x4
|8---8---8/6-|--------|
|9---9---9/7-|--------|
|------------|--------|
|------------|--------|
|------------|--------|
Tap to rate this tab
# A B C D E F G H I J K L M N O P Q R S T U V W X Y Z