Song name
# A B C D E F G H I J K L M N O P Q R S T U V W X Y Z

Misc Unsigned Bands - Infektyd - Ghost tab

Intro/Chourus (Clean w/ Reverb)

|------------------------|----------------------------|
|------------------------|----------------------------|
|--------------0---------|------------4---------------|
|----------4-------------|---------4------------------|x6
|------2-----------------|------3---------------------|
|--0---------------------|--0-------------------------|

Verse
|----------------------------------------------------|
|----------------------------------------------------|
|----------------------------------------------------|
|----------------------------------------------------|x2
|-----------------------4-44-4-4--3-3-3-3-3----------|
|-0-00-00-0-0-00-0-----------------------------------|



|------------------------|----------------------------|
|------------------------|----------------------------|
|--------------0---------|------------4---------------|
|----------4-------------|---------4------------------|x2
|------2-----------------|------3---------------------|
|--0---------------------|--0-------------------------|



|----------------------------------------------------|
|----------------------------------------------------|
|----------------------------------------------------|
|----------------------------------------------------|
|-----------------------4-44-4-4--3-3-3-3-3----------|
|-0-00-00-0-0-00-0-----------------------------------|


Chourus (Distortion)
|------------------------|----------------------------|
|------------------------|----------------------------|
|--------------0---------|------------4---------------|
|----------4-------------|---------4------------------|x4
|------2-----------------|------3---------------------|
|--0---------------------|--0-------------------------|


|------------------------| 
|------------------0-----| 
|--------------4---------| 
|----------4-------------|x3
|------3-----------------| 
|--0---------------------| 

|----------------------------|
|----------------------------|
|------------4---------------|
|---------4------------------|
|------3---------------------|
|--0--------------0----------|
Tap to rate this tab
# A B C D E F G H I J K L M N O P Q R S T U V W X Y Z