Song name
# A B C D E F G H I J K L M N O P Q R S T U V W X Y Z

Misc Unsigned Bands - The Fuzz - Down Slope tab

if you have any ques. email at cteez910@mindspring.com

Standard Tuning

| /  slide up
| \  slide down
| h  hammer-on
| p  pull-off
| ~  vibrato
| +  harmonic
| x  Mute note


Riff 1a
[repeat 2X]
e|-------------------------------------------------------------------------|
B|-------------------------------------------------------------------------|
G|-------------------------------------------------------------------------|
D|-------------------------------------------------------------------------|
A|--5----------5--------5------5------5------------------------------------|
E|--3-00000----3-00000--3-00---3-00---3-00000------------------------------|

Riff 1b
e|-------------------------------------------------------------------------|
B|-------------------------------------------------------------------------|
G|-------------------------------------------------------------------------|
D|-------------------------------------------------------------------------|
A|--5--7--9--7-------------------------------------------------------------|
E|--3--5--7--5-------------------------------------------------------------|

[Riff 1a [X2]]

Riff 1c
e|-------------------------------------------------------------------------|
B|-------------------------------------------------------------------------|
G|-------------------------------------------------------------------------|
D|-------------------------------------------------------------------------|
A|--5--7--9--7--5--2-------------------------------------------------------|
E|--3--5--7--5--3--0-------------------------------------------------------|



(1st solo)
e|10h12p10----------10h12p10-----------------------------------------------|
B|--------12---12------------12----12--------------------------------------|
G|----------10-12---------------10-12----10----10--12b14---10----10--------|
D|------------------------------------------12---------------12----12-12-12|
A|-------------------------------------------------------------------------|
E|-------------------------------------------------------------------------|

[Riff 1a [X2]
[Riff 1b [X1]
[Riff 1a [X2]
[Riff 1c [X1]

[Outro]
e|--------------------------------------------------------3-5-3------------|
B|--------------------------------------------5-7br5-3--5-------5----------|
G|----------------------------------------4-7------------------------------|
D|----2--2--2--2----------------------5-7----------------------------------|
A|-2--2--2--2--2----------------5-5-7--------------------------------------|
E|-0--0--0--0--0---3-5-7--5h7p5--------------------------------------------|

e|--3h5p3h5p3h5p3h5p3h5~~~~------------------------------------------------|
B|-------------------------------------------------------------------------|
G|-------------------------------------------------------------------------|
D|-------------------------------------------------------------------------|
A|-------------------------------------------------------------------------|
E|-------------------------------------------------------------------------|

e|-------------------------------------------------------------------------|
B|-------------------------------------------------------------------------|
G|-------------------------------------------------------------------------|
D|-------------------------------------------------------------------------|
A|-------------------------------------------------------------------------|
E|-------------------------------------------------------------------------|


Tap to rate this tab
 
# A B C D E F G H I J K L M N O P Q R S T U V W X Y Z