Song name
# A B C D E F G H I J K L M N O P Q R S T U V W X Y Z

Misc Unsigned Bands - Checkered Stripe - Call Mom tab

our bands website is http://www.myspace.com/checkeredstripes
intro
e---------------------------------------------|
b---------------------------------------------|
g-----9---------------------------------------|     x4
d---9---9------9--------11----------6---------|
a-7----------9---9----11---11-----6---6-------|
e----------7--------9-----------4-------------|

verse
e--           e--       e--       e---------------|
b--           b--       b--       b---------------|
g-9-          g--       g--       g---------------|
d-9-  x8      d-9 x8    d-11  x8  d-6   x8--------|       x2
a-7           a-9       a-11      a-6-------------|
e--           e-7       e-9       e-4-------------|

chourus
e-----------------------------|
b-----------------------------|
g-9---------------------------|
d-9-9--9-9-9-11-11-11-7-7-7-7-|
a-7-9--9-9-9-11-11-11-7-7-7-7-|
e---7--7-7-7-9--9--9-5-5-5-5--|

order:
intro
verse
chourus
verse
chourus
chourus
intro
Tap to rate this tab
# A B C D E F G H I J K L M N O P Q R S T U V W X Y Z