Song name
# A B C D E F G H I J K L M N O P Q R S T U V W X Y Z

Misc Unsigned Bands - Infektyd - Necrophobia tab

Use Distortion


Intro/Verse
|---------------------------------------|
|---------------------------------------|
|---------------------------------------|
|---------------------------------------|x6
|-----0----0----0----1------------------|
|--0000 0000-0000-0001------------------|


|-------------------------------------------------------------|
|-------------------------------------------------------------|
|-------------------------------------------------------------|
|-------------------------------------------------------------|x4
|-------------------------------------------------------------|
|-0-0-0-00-00-0-00-0-00-00-0-4-4-4-44-44-3-3-3-33-33-3--------|


Chorus
|---------------------------------------|
|---------------------------------------|
|---------------------------------------|
|---------------------------------------|x2
|---------------------------------------|
|00033355-00055533-00011133-00033311----|


Verse
|---------------------------------------|
|---------------------------------------|
|---------------------------------------|
|---------------------------------------|x4
|-----0----0----0----1------------------|
|--0000 0000-0000-0001------------------|



|-------------------------------------------------------------|
|-------------------------------------------------------------|
|-------------------------------------------------------------|
|-------------------------------------------------------------|x2
|-------------------------------------------------------------|
|-0-0-0-00-00-0-00-0-00-00-0-4-4-4-44-44-3-3-3-33-33-3--------|


|---------------------------------------|
|---------------------------------------|
|---------------------------------------|
|---------------------------------------|x2
|---------------------------------------|
|00033355-00055533-00011133-00033311----|


Outro
|---------------------------------------|
|---------------------------------------|
|---------------------------------------|
|---------------------------------------|x4
|---------------------------------------|
|-00-00-00-232-00-----------------------|


|------------------------------|
|------------------------------|
|------------------------------|
|------------------------------|
|-0010-------------------------|
|-0010-------------------------|
Tap to rate this tab
# A B C D E F G H I J K L M N O P Q R S T U V W X Y Z