Song name
# A B C D E F G H I J K L M N O P Q R S T U V W X Y Z

Misc Unsigned Bands - Toxic Oasis - Kill The Neighbors tab

This is our first song for our band  Toxic Oasis, its really easy and it kicks ass. This 
copyrighted. It is unlawful to use without permission unless in private. Kinda like 
off.

intro:
---------------------------------------------------------------------|
---------------------------------------------------------------------|
---------------------------------------------------------------------|
-9-9-9-9-9-9-9-9--7-7-7-7-7-7-7-7--5-5-5-5-5-5-5-5--7-7-7-7-7-7-7-7--|
-9-9-9-9-9-9-9-9--7-7-7-7-7-7-7-7--5-5-5-5-5-5-5-5--7-7-7-7-7-7-7-7--|
-7-7-7-7-7-7-7-7--5-5-5-5-5-5-5-5--3-3-3-3-3-3-3-3--5-5-5-5-5-5-5-5--|

1.Well all these/   Neighbors/Are pretty pissed that we're/ playin so loud
2. Well i dont care about these/ neigbors/ in fact i say we should-

-----------------------|
-----------------------|
-----------------------|
--7---X---7---X---7----|
--7---X---7---X---7----|
--5---X---5---X---5----|

KILL    THEM     ALL!
Tap to rate this tab
 
# A B C D E F G H I J K L M N O P Q R S T U V W X Y Z