Song name
# A B C D E F G H I J K L M N O P Q R S T U V W X Y Z

Misc Unsigned Bands - Metro Riot - Be Mine tab

Verse
|--x--x-------------------------|  x10 
|--4--4-------------------------|
|--4--4-------------------------|
|--4--4------2-4-2---2----------|
|--2--2--2-5-------5---5--------|
|--x--x-------------------------|

|--x--x-------------------------|  x1 
|--6--9-------------------------|
|--6--9-------------------------|
|--6--9-------------------------|
|--4--7-------------------------|
|--x--x-------------------------|
  ''Be Mine''

Verse Repeats

Chorus
|--x----x----x----x-------------|  
|--4----7----6----9-------------|
|--4----7----6----9-------------|
|--4----7----6----9-------------|
|--2----5----4----7-------------|
|--x----x----x----x-------------|

Verse
|--x--x-------------------------|   
|--4--4-------------------------|
|--4--4-------------------------|
|--4--4------2-4-2---2----------|
|--2--2--2-5-------5---5--------|
|--x--x-------------------------|

|--x--x-------------------------|   
|--6--9-------------------------|
|--6--9-------------------------|
|--6--9-------------------------|
|--4--7-------------------------|
|--x--x-------------------------|
  ''Be Mine''


Solo

Chorus
|--x----x----x----x-------------|  
|--4----7----6----9-------------|
|--4----7----6----9-------------|
|--4----7----6----9-------------|
|--2----5----4----7-------------|
|--x----x----x----x-------------|


Tap to rate this tab
# A B C D E F G H I J K L M N O P Q R S T U V W X Y Z