Song name
# A B C D E F G H I J K L M N O P Q R S T U V W X Y Z

Misc Unsigned Bands - Situation Hopeless - Total Self-debasement tab

-----------------------------------------------------------------------------------|
--------------------------------Intro/Chorus---------------------------------------|
-----------------------------------------------------------------------------------|
0-0-0-0-0-0-0-0--0-0-0-0-0-0-0-0--3-3-3-3-3-3-3-3--3-3-3-3-3-3-3-3-----------------|
2-2-2-2-0-0-0-0--2-2-2-2-0-0-0-0--2-2-2-2-0-0-0-0--2-2-2-2-0-0-0-0-----------------|X2
3-3-3-3-3-3-3-3--3-3-3-3-3-3-3-3--3-3-3-3-3-3-3-3--3-3-3-3-3-3-3-3-----------------|

--------------------------------------------------------------|
-----------------------Verse's--------------------------------|
--------------------------------------------------------------|
--------------------------------------------------------------|
x-x-1-x-x-1-x-x-1-x-x-1-x-x-1-x-x-1-x-x-1-x-1-x-1-------------|X4
x-x-1-x-x-1-x-x-1-x-x-1-x-x-1-x-x-1-x-x-1-x-1-x-1-------------|

-----------------------------------------------------------------------------------|
--------------------------------Intro/Chorus---------------------------------------|
-----------------------------------------------------------------------------------|
0-0-0-0-0-0-0-0--0-0-0-0-0-0-0-0--3-3-3-3-3-3-3-3--3-3-3-3-3-3-3-3-----------------|
2-2-2-2-0-0-0-0--2-2-2-2-0-0-0-0--2-2-2-2-0-0-0-0--2-2-2-2-0-0-0-0-----------------|X2
3-3-3-3-3-3-3-3--3-3-3-3-3-3-3-3--3-3-3-3-3-3-3-3--3-3-3-3-3-3-3-3-----------------|
-----------------------------------------------------------------------------------|

-----------------------Verse----------------------------------|
--------------------------------------------------------------|
--------------------------------------------------------------|
x-x-1-x-x-1-x-x-1-x-x-1-x-x-1-x-x-1-x-x-1-x-1-x-1-------------|X4
x-x-1-x-x-1-x-x-1-x-x-1-x-x-1-x-x-1-x-x-1-x-1-x-1-------------|

-----------------------------------------------------------------------------------|
--------------------------------Intro/Chorus---------------------------------------|
-----------------------------------------------------------------------------------|
0-0-0-0-0-0-0-0--0-0-0-0-0-0-0-0--3-3-3-3-3-3-3-3--3-3-3-3-3-3-3-3-----------------|
2-2-2-2-0-0-0-0--2-2-2-2-0-0-0-0--2-2-2-2-0-0-0-0--2-2-2-2-0-0-0-0-----------------|X2
3-3-3-3-3-3-3-3--3-3-3-3-3-3-3-3--3-3-3-3-3-3-3-3--3-3-3-3-3-3-3-3-----------------|

--------------------------------------------------------------|
-----------------------Verse----------------------------------|
--------------------------------------------------------------|
--------------------------------------------------------------|
x-x-1-x-x-1-x-x-1-x-x-1-x-x-1-x-x-1-x-x-1-x-1-x-1-------------|X4
x-x-1-x-x-1-x-x-1-x-x-1-x-x-1-x-x-1-x-x-1-x-1-x-1-------------|

-----------------------------------------------------------------------------------|
--------------------------------Intro/Chorus---------------------------------------|
-----------------------------------------------------------------------------------|
0-0-0-0-0-0-0-0--0-0-0-0-0-0-0-0--3-3-3-3-3-3-3-3--3-3-3-3-3-3-3-3-----------------|
2-2-2-2-0-0-0-0--2-2-2-2-0-0-0-0--2-2-2-2-0-0-0-0--2-2-2-2-0-0-0-0-----------------|X2
3-3-3-3-3-3-3-3--3-3-3-3-3-3-3-3--3-3-3-3-3-3-3-3--3-3-3-3-3-3-3-3-----------------|

4-4-4-4-4-4-4-4-4-4--------|
3-3-3-3-3-3-3-3-3-3--------|
---------------------------|
---------------------------|X4
------End verse------------|
---------------------------|
Tap to rate this tab
 
# A B C D E F G H I J K L M N O P Q R S T U V W X Y Z