Song name
# A B C D E F G H I J K L M N O P Q R S T U V W X Y Z

Misc Unsigned Bands - Cry Wolf - Crimson tab

Help us improve GuitareTab! Take a short survey!
#----------------------------------PLEASE NOTE---------------------------------#
#This file is the author's own work and represents their interpretation of the #
#song. You may only use this file for private study, scholarship, or research. #
#------------------------------------------------------------------------------#

Crimson



	



Gtr I (C G C F A D) - 'Rhythm Guitar'
Gtr II (C G C F A D) - 'Lead Guitar'
Gtr III (C G C F A D) - 'Sub Guitar (Optional)'

    Q=150
   4/4
    Gtr I
    PM
    E E E E E E E E E E E E E E E E E E E E E E E E E E E E E E E E
||-------------------------------------------------------------------|
||o------------------------------------------------------------------|
||-------------------------------------------------------------------|
||--8-8-8-8-8-8-8-8-8-8-8-8-8-8-8-8-3-3-3-3-3-3-3-3-3-3-3-3-3-3-3-3--|
||o-8-8-8-8-8-8-8-8-8-8-8-8-8-8-8-8-3-3-3-3-3-3-3-3-3-3-3-3-3-3-3-3--|
||--8-8-8-8-8-8-8-8-8-8-8-8-8-8-8-8-3-3-3-3-3-3-3-3-3-3-3-3-3-3-3-3--|


  E E E E E E E E E E E E E E E E E E E E E E E E E E E E E E E E
|---------------------------------------------------------------------||
|--------------------------------------------------------------------o||
|---------------------------------------------------------------------||
|-5-5-5-5-5-5-5-5-5-5-5-5-5-5-5-5-5-5-5-5-5-5-5-5-5-5-5-5-5-5-5-5-----||
|-5-5-5-5-5-5-5-5-5-5-5-5-5-5-5-5-5-5-5-5-5-5-5-5-5-5-5-5-5-5-5-5----o||
|-5-5-5-5-5-5-5-5-5-5-5-5-5-5-5-5-5-5-5-5-5-5-5-5-5-5-5-5-5-5-5-5-----||


    Gtr I
    W                W               W               W
||---------------------------------------------------------------------|
||o--------------------------------------------------------------------|
||---------------------------------------------------------------------|
||--8--------------------------------3---------------------------------|
||o-8--------------------------------3---------------------------------|
||--8--------------------------------3---------------------------------|
|
|   Gtr II
|   E E E E  E E E E E E E E E E E E E E E E E E E E E E E E E E E E
||---------------------------------------------------------------------|
||o--------------------------------------------------------------------|
||---------------------------------------------------------------------|
||--8-0-7-8-10-0-8-7-5-0-5-7-5-0-5-7-3-0-2-3-5-0-3-5-7-0-5-7-8-7-5-3---|
||o--------------------------------------------------------------------|
||---------------------------------------------------------------------|


  Gtr I
  W                W               W                W
|-------------------------------------------------------------------------||
|------------------------------------------------------------------------o||
|-------------------------------------------------------------------------||
|-5-----------------------------------------------------------------------||
|-5----------------------------------------------------------------------o||
|-5-----------------------------------------------------------------------||
|
| Gtr II
| E E E E E E E E  E E E E E E E E E E E E E E E E  E E E  E  E E E E
|-------------------------------------------------------------------------||
|------------------------------------------------------------------------o||
|-------------------------------------------------------------------------||
|-5-0-5-7-8-0-7-8-10-0-8-7-5-0-5-3-5-0-5-7-8-0-7-8-10-8-7-12-10-8-7-8-----||
|------------------------------------------------------------------------o||
|-------------------------------------------------------------------------||


    Gtr I
    W        W        W        W
||----------------------------------|
||o---------------------------------|
||----------------------------------|
||--8-----------------3-------------|
||o-8-----------------3-------------|
||--8-----------------3-------------|
|
|   Gtr II
|   W        W        W        W
||----------------------------------|
||o---------------------------------|
||----------------------------------|
||----------------------------------|
||o---------------------------------|
||----------------------------------|


  Gtr I
  W                W               W                W
|-------------------------------------------------------------------------||
|------------------------------------------------------------------------o||
|-------------------------------------------------------------------------||
|-5--------------------------------5--------------------------------------||
|-5--------------------------------5-------------------------------------o||
|-5--------------------------------5--------------------------------------||
|
| Gtr II
| E E E E E E E E  E E E E E E E E E E E E E E E E  E E E  E  E E E E
|-------------------------------------------------------------------------||
|------------------------------------------------------------------------o||
|-------------------------------------------------------------------------||
|-5-0-5-7-8-0-7-8-10-0-8-7-5-0-5-3-5-0-5-7-8-0-7-8-10-8-7-12-10-8-7-8-----||
|------------------------------------------------------------------------o||
|-------------------------------------------------------------------------||


  Gtr II
  E E E E E E E W
|--------------------|
|---------6-5--------|
|-7-7-7-7-----5-7----|
|--------------------|
|--------------------|
|--------------------|


    Gtr I
     Q     Q     Q     Q     Q     Q     Q     Q     Q     Q     Q     Q     Q     Q    Q   Q
||---5-----5-----5-----5-----5-----5-----5-----5-----5-----5-----5-----5-----5-----5----5---5-----|
||o--6-----6-----6-----6-----6-----6-----6-----6-----6-----6-----6-----6-----6-----6----6---6-----|
||---7-----7-----7-----7-----7-----7-----7-----7-----7-----7-----7-----7-----7-----7----7---7-----|
||---8-----8-----8-----8-----8-----8-----8-----8-----8-----8-----8-----8-----8-----8----8---8-----|
||o-----------------------------------------------------------------------------------------------|
||------------------------------------------------------------------------------------------------|
|
|   Gtr II
|    E  E  E  E  E  E  E  E  E  E  E  E  E  E  E  E  E  E  E  E  E  E  E  E  E  E  E  E E E E E
||------------------------------------------------------------------------------------------------|
||o-----------------------------------------------------------------------------------------------|
||--15-15-15-15-14-14-14-14-12-12-12-12-10-10-10-10-14-14-14-14-12-12-12-12-10-10-10-10-9-9-9-9---|
||------------------------------------------------------------------------------------------------|
||o-----------------------------------------------------------------------------------------------|
||------------------------------------------------------------------------------------------------|


  Gtr II
  E E E E E E E E  E  E  E  E E E E E E E E E E E E E  E  E  E  E  E  E  E  E
|---------------------------------------------------------------------------------||
|--------------------------------------------------------------------------------o||
|-7-7-7-7-9-9-9-9-10-10-10-10-5-5-5-5-7-7-7-7-9-9-9-9-10-10-10-10-12-12-12-12-----||
|---------------------------------------------------------------------------------||
|--------------------------------------------------------------------------------o||
|---------------------------------------------------------------------------------||
|
| Gtr I
| Q   Q   Q   Q    Q     Q    Q   Q   Q   Q   Q   Q    Q     Q     Q     Q
|-5---5---5---5----5-----5----5---5---5---5---5---5----5-----5-----5-----5--------||
|-6---6---6---6----6-----6----6---6---6---6---6---6----6-----6-----6-----6-------o||
|-7---7---7---7----7-----7----7---7---7---7---7---7----7-----7-----7-----7--------||
|-0---0---0---0----0-----0----0---0---0---0---0---0----0-----0-----0-----0--------||
|-------------------------------------0---0---0---0----0-----0-----0-----0-------o||
|-------------------------------------0---0---0---0----0-----0-----0-----0--------||


  Gtr I
  Q  Q  Q  Q  Q  Q  Q  Q  Q   Q   Q   Q   Q   Q   Q   Q
|-3--3--3--3--3--3--3--3--0---0---0---0---0---0---0---0------|
|-1--1--1--1--1--1--1--1--1---1---1---1---1---1---1---1------|
|-2--2--2--2--2--2--2--2--2---2---2---2---2---2---2---2------|
|-2--2--2--2--2--2--2--2--3---3---3---3---3---3---3---3------|
|-0--0--0--0--0--0--0--0-------------------------------------|
|------------------------------------------------------------|
|
| Gtr II
| H     H     H     H     E E E E E E E E E E E E E E E E
|------------------------------------------------------------|
|------------------------------------------------------------|
|------------------------------------------------------------|
|-8-----8-----8-----8-----3-3-3-3-3-3-3-3-3-3-3-3-3-3-3-3----|
|-8-----8-----8-----8-----3-3-3-3-3-3-3-3-3-3-3-3-3-3-3-3----|
|-8-----8-----8-----8-----3-3-3-3-3-3-3-3-3-3-3-3-3-3-3-3----|


  Gtr I
  Q   Q   Q   Q      Q   Q   Q   Q     Q   Q   Q   Q      Q   Q     Q   Q
|-3---3---3---3---|--3---3---3---3---|-3---3---3---3---|--3---3-----3---3---|
|-5---5---5---5---|--5---5---5---5---|-3---3---3---3---|--3---3-----3---3---|
|-5---5---5---5---|--5---5---5---5---|-5---5---5---5---|--5---5-----5---5---|
|-0---0---0---0---|--0---0---0---0---|-0---0---0---0---|--0---0-----0---0---|
|-----------------|------------------|-----------------|--------------------|
|-----------------|------------------|-----------------|--------------------|
|
| Gtr II
| E E E E E E E E    E E E E E E E E   E E E E E E E E    E E E  E  E E E E
|-----------------|------------------|-----------------|--------------------|
|-----------------|------------------|-----------------|--------------------|
|-----------------|------------------|-----------------|--------------------|
|-5-5-5-5-5-5-5-5-|--5-5-5-5-5-5-5-5-|-5-5-5-5-5-5-5-5-|--5-5-5--5--5-5-5-5-|
|-5-5-5-5-5-5-5-5-|--5-5-5-5-5-5-5-5-|-5-5-5-5-5-5-5-5-|--5-5-5--5--5-5-5-5-|
|-5-5-5-5-5-5-5-5-|--5-5-5-5-5-5-5-5-|-5-5-5-5-5-5-5-5-|--5-5-5--5--5-5-5-5-|
|
| Gtr III
| E E E E E E E E    E E E E E E E E   E E E E E E E E    E E E  E  E E E E
|-----------------|------------------|-----------------|--------------------|
|-----------------|------------------|-----------------|--------------------|
|-----------------|------------------|-----------------|--------------------|
|-5-0-5-7-8-0-7-8-|-10-0-8-7-5-0-5-3-|-5-0-5-7-8-0-7-8-|-10-8-7-12-10-8-7-8-|
|-----------------|------------------|-----------------|--------------------|
|-----------------|------------------|-----------------|--------------------|


Related for Cry Wolf - Crimson tab