Song name
# A B C D E F G H I J K L M N O P Q R S T U V W X Y Z

Misc Unsigned Bands - Bloodfeast - Monster Mash tab

Tuning: EADGBe OR HALF STEP

(riff 1)
eb|------------------------------------------------------------------------|
Bb|------------------------------------------------------------------------|
Gb|------------------------------------------------------------------------|
Db|------------------------------------------------------------------------|
Ab|--7--7-7-7-7-7-7-7-7-7-7-7-7-7--4--4-4-4-4-4-4-4-4-4-4-4-4-4------------|
Eb|--5--5-5-5-5-5-5-5-5-5-5-5-5-5--2--2-2-2-2-2-2-2-2-2-2-2-2-2------------|

eb|------------------------------------------------------------------------|
Bb|------------------------------------------------------------------------|
Gb|------------------------------------------------------------------------|
Db|--7--7-7-7-7-7-7-7-7-7-7-7-7-7--9--9-9-9-9-9-9-9-9-9-9-9-9-9------------|
Ab|--5--5-5-5-5-5-5-5-5-5-5-5-5-5--7--7-7-7-7-7-7-7-7-7-7-7-7-7------------|
Eb|------------------------------------------------------------------------|

(riff 2)
eb|------------------------------------------------------------------------|
Bb|------------------------------------------------------------------------|
Gb|------------------------------------------------------------------------|
Db|7-7-7-7-7-7-7-7-7-7-7-7-9-9-9-9-9-9-9-9-9-9-9-9-7-7-7-7-7-7-7-7-7-7-7-79|
Ab|5-5-5-5-5-5-5-5-5-5-5-5-7-7-7-7-7-7-7-7-7-7-7-7-5-5-5-5-5-5-5-5-5-5-5-57|
Eb|------------------------------------------------------------------------|

(riff 3)
eb|------------------------------------------------------------------------|
Bb|------------------------------------------------------------------------|
Gb|------------------------------------------------------------------------|
Db|------------------------------------------------------------------------|
Ab|--7--7-7-7-7-7-7-7-7-7-7-7-7-7--4--4-4-4-4-4-4-4-4-4-4-4-4-4------------|
Eb|--5--5-5-5-5-5-5-5-5-5-5-5-5-5--2--2-2-2-2-2-2-2-2-2-2-2-2-2------------|
(PM) .  . . . . . . . . . . . . .  .  . . . . . . . . . . . . .

eb|------------------------------------------------------------------------|
Bb|------------------------------------------------------------------------|
Gb|------------------------------------------------------------------------|
Db|--7--7-7-7-7-7-7-7-7-7-7-7-7-7--9---------------------------------------|
Ab|--5--5-5-5-5-5-5-5-5-5-5-5-5-5--7---------------------------------------|
Eb|------------------------------------------------------------------------|
(PM) .  . . . . . . . . . . . . .

(riff 4)
eb|------------------------------------------------------------------------|
Bb|------------------------------------------------------------------------|
Gb|------------------------------------------------------------------------|
Db|------------------------------------------------------------------------|
Ab|--7--7-7-7-7-7-7-7-7-7-7-7-7-7--4--4-4-4-4-4-4-4-4-4-4-4-4-4------------|
Eb|--5--5-5-5-5-5-5-5-5-5-5-5-5-5--2--2-2-2-2-2-2-2-2-2-2-2-2-2------------|

eb|------------------------------------------------------------------------|
Bb|------------------------------------------------------------------------|
Gb|------------------------------------------------------------------------|
Db|--7--7-7-7-7-7-7-7-7-7-7-7-7-7--9--9-9-9-9-9-9--------------------------|
Ab|--5--5-5-5-5-5-5-5-5-5-5-5-5-5--7--7-7-7-7-7-7--9--7--5--4--------------|
Eb|------------------------------ -----------------7--5--3--2--------------|


order:
riff 1       4x
riff 2       1x
riff 1       2x
riff 3       1x
riff 1       1x
riff 3       1x
riff 4       3x
Tap to rate this tab
# A B C D E F G H I J K L M N O P Q R S T U V W X Y Z