Song name
# A B C D E F G H I J K L M N O P Q R S T U V W X Y Z

Misc Unsigned Bands - Style Stu - This Town tab

Song: This Town
Band: Style Stu

I have seen this song performed so many times so this tab should be about correct. I'm 
all too positive about the bridge so you'll just have to try it or change it.

Intro
(light distortion)
e|---------------------------------|
B|---------------------------------|
G|---------8x8x8x8---------7x7x7x7-|
D|-5x5x5x5-8x8x8x8-8x8x8x8-7x7x7x7-|
A|-5x5x5x5-6x6x6x6-8x8x8x8-5x5x5x5-|
E|-3x3x3x3---------6x6x6x6---------|

e|----------------------------|
B|----------------------------|
G|---------8x8x8x8---------7~-|
D|-5x5x5x5-8x8x8x8-8x8x8x8-7~-|
A|-5x5x5x5-6x6x6x6-8x8x8x8-5~-|
E|-3x3x3x3---------6x6x6x6----|

Verse
(light distortion)
e|---------------------------------|
B|---------------------------------|
G|---------8x8x8x8---------7x7x7x7-|
D|-5x5x5x5-8x8x8x8-8x8x8x8-7x7x7x7-|
A|-5x5x5x5-6x6x6x6-8x8x8x8-5x5x5x5-|
E|-3x3x3x3---------6x6x6x6---------|

Chorus
(Moderate distortion)
e|---------------------------------|
B|---------------------------------|
G|---------8-8-8-8---------7-7-7-7-|
D|-5-5-5-5-8-8-8-8-8-8-8-8-7-7-7-7-|
A|-5-5-5-5-6-6-6-6-8-8-8-8-5-5-5-5-|
E|-3-3-3-3---------6-6-6-6---------|

Breakdown/Bridge
Very light Distortion
e|--------------------------|
B|--------------------------|
G|---------8-----------7----|
D|---5----8-8----8----7-7---|
A|--5-5--6---6--8-8--5---5--|
E|-3---3-------6---6--------|

end on chorus

Note: If you really want to get the sound just right use a Jekyll & Hyde effect pedal. 
the same used by Style Stu.
Tap to rate this tab
 
# A B C D E F G H I J K L M N O P Q R S T U V W X Y Z