Song name
# A B C D E F G H I J K L M N O P Q R S T U V W X Y Z

Misc Unsigned Bands - Bloodthirsty - Spawned tab

   |---------------------------------|
   |---------------------------------|
   |---------------------------------|    play the intro
   |-------------2-1-3-2---2-1-------|   play twice or 3 times!
   |-2-1---3-2-----------3-----3-2-1-|
   |-----3-----3---------------------|
Riff
e|-------------------------------------------------------------------|
B|-------------------------------------------------------------------|
G|-------------------------------------------------------------------|
D|-----------4-----55------------------------------------------------|
A|--------------------------------2224-------------------------------|
E|--4444-0000-1111-0000-4444-0000------0000--------------------------|


e|-0---------------------------------------------------------------|
B|-----------------------------------------------------------------|
G|-----------------------------------------------------------------|
D|--------------------4--------------------------------------------|
A|--6-6---3-3---6-6---2--------------------------------------------|
E|--4-4-0-1-1-0-4-4-0---0-1----------------------------------------|
    . . . . . . . . . . . .


    this x3
e|---------------------------|-----------------------------------|
B|---------------------------|-----------------------------------|
G|---------------------------|-----------------------------------|
D|------------------------5--|-----------------------------------|
A|---------------3/4------3--|--6---------------6-6-6-6-4--------|
E|--000000000000-1/222222----|--44444444444444444-4-4-4----------|

    this x3
e|---------------------------|------------------------------------------------------|
B|---------------------------|------------------------------------------------------|
G|---------------------------|------------------------------------------------------|
D|-0-----------------------5--|-----------------------------------------------------|
A|---------------3-4------3--|--6------------6-6-6-6-4--5------5-5-5-5--3-----------|
E|--000000000000-1/222222----|--44444444444444-4-4-4----33333333-3-3-3--------------|

 3
e|---------------|-----------------------------------------------|
B|---------------|-----------------------------------------------|
G|---------------|-----------------------------------------------|
D|---------------|-----------------------------------------------|
A|----5----------|----3------------------------------------------|
E|--4---0-4-3-0--|--2---0-2-1-0----------------------------------|
        . . . .         . . . .

4
e|---------------------------------0-------------------------------|
B|-----------------------------------------------------------------|
G|-----------------------------------------------------------------|
D|-----------------------------------------------------------------|
A|----5-----4-----3-----2------------------------------------------|
E|--4---0-3---0-2---0-1--------0-----------------------------------|
Tap to rate this tab
# A B C D E F G H I J K L M N O P Q R S T U V W X Y Z