Song name
# A B C D E F G H I J K L M N O P Q R S T U V W X Y Z

Misc Unsigned Bands - Djemte E Detit - Balade Per Jakup Ferrin tab

DISTORTION

e----------------------------------------|
B----------------------------------------|
G----------------------------------------|
D---9-9-9--7-9-10-9-9-9--10-9-7----------|
A----------------------------------------|
E----------------------------------------|


e----------------------------------------|
B----------------------------------------|
G----------------------------------------|
D---9-9-9--7-9-10-9-9-9--10-9-7----------|
A----------------------------------------|
E----------------------------------------|

e----------------------------------------|
B----------------------------------------|
G----------------------------------------|
D---9-9-9--7-9-10-9-9-9--10-9-7----------|
A----------------------------------------|
E----------------------------------------|

e----------------------------------------|
B----------------------------------------|
G----------------------------------------|
D----------7h~~~~~-----------------------|
A----------------------------------------|
E----------------------------------------|

e----------------------------------------|
B----------------------------------------|
G----------------------------------------|
D---9-9-9--7-9-10-9-9-9--10-9-7----------|
A----------------------------------------|
E----------------------------------------|


e----------------------------------------|
B----------------------------------------|
G----------------------------------------|
D---9-9-9--7-9-10-9-9-9--10-9-7----------|
A----------------------------------------|
E----------------------------------------|

Djemte e Detit (Intro)


TAB BY:ARDI

coldplaying_1990@hotmail.com(msn)
coldplaying_1990@yahoo.com

Write to me for suggestions or everything.
Tap to rate this tab
# A B C D E F G H I J K L M N O P Q R S T U V W X Y Z