Song name
# A B C D E F G H I J K L M N O P Q R S T U V W X Y Z

Misc Unsigned Bands - Dark Vallies - Feel tab

yeah so this is how it goes
intro:
e-------------------------------------------------|
b-6---6---6---6---6---6---6---6---6---6---6---6---|
g---6---6---5---5---6---6---5---5---6---6---6---6-|
d-------------------------------------------------|
a-------------------------------------------------|
E-------------------------------------------------|

e-4-4-4-7-7-7------------------------------------|
b-6-6-6-9-9-9------------------------------------|
g-6-6-6-9-9-9-9b-7b-5b---------------------------|
d------------------------------------------------|
a------------------------------------------------|
E------------------------------------------------|

e----------------------------------------------------|
b-3-3-5-5-5-7-7-7-7-4-4------------------------------|
g-5-5-7-7-7-9-9-9-9-6-6------------------------------|   x8
d-5-5-7-7-7-9-9-9-9-6-6------------------------------|
a----------------------------------------------------|
E----------------------------------------------------|

e--------------------------------------------------|
b-6---6---6---6---6---6---6---6---6----------------|
g---6---6---5---5---6---6---5---5----6-------------|
d----------------------------------------0---------|
a--------------------------------------------0-----|
E------------------------------------------------0-|


yay!
Tap to rate this tab
# A B C D E F G H I J K L M N O P Q R S T U V W X Y Z