Song name
# A B C D E F G H I J K L M N O P Q R S T U V W X Y Z

Misc Unsigned Bands - Help Wanted - Not Fair tab

This is a song by the Irish Rock Band 'Help Wanted'.

Intro/Verse

E -------------------------------------------------|
B -------------------------------------------------|
G ------------------4-4-4-4-4-4-4-4-5-5-5-5-5-5-5--|
D --5-5-5-5-5-5-5-5-4-4-4-4-4-4-4-4-5-5-5-5-5-5-5--|
A --5-5-5-5-5-5-5-5-2-2-2-2-2-2-2-2-3-3-3-3-3-3-3--|
E --3-3-3-3-3-3-3-3--------------------------------|

E -------------------------------------------------|
B -------------------------------------------------|
G --------7--7-7-7---------------------------------|
D 5--5-5--7--7-7-7---------------------------------|
A 5--5-5--5--5-5-5---------------------------------|
E 3--3-3-------------------------------------------|   x5

E ----------------------------------------------|
B ----------------------------------------------|
G -------------4--4--4--4--5--5--5--5--77777777-|
D -5--5--5--5--4--4--4--4--5--5--5--5--77777777-|
A -5--5--5--5--2--2--2--2--3--3--3--3--55555555-|
E -3--3--3--3-----------------------------------|

E ----------|
B ----------|
G ----------|
D 77777777--
A 77777777--
E 55555555--

Chorus

E ----------------------------|
B ----------------------------|
G 99999999-77777777---------9-|
D 99999999-77777777---------9-|
A 77777777-55555555 9999999-7
E ------------------7777777--    x3

E -----------------------------|
B -----------------------------|
G -9--9-9--7--7-7-------1------|
D -9--9-9--7--7-7-9-7-5-2------|
A -7--7-7--5--5-5-9-7-5-2------|
E ----------------7-5-3-0------|

Post Chorus....bit...

E --------------    -----------------|
B --------------    -----------------|
G --------------    -----------------|
D -2-2-2-5--7---    -777777777777777-|
A -2-2-2-5--7---    -777777777777777-|
E -0-0-0-3--5--- x5 -555555555555555-|

E ------------------|
B ------------------|
G ------------------|
D 999999999---------|
A 999999999-7-5-3-0-|
E 777777777---------|

Verse 2
Chorus

 Guitar Solo
E       ----------------3-3-5-3--5-5-7-5-----------7--5-7-5--|
B       ----------------------------------5-5-7-5------------|
G       -----------------------------------------------------|
D       -----------------------------------------------------|
A       -----------------------------------------------------|
E (bass)0000000000000000-------------------------------------| x2

E -3-3-2-3--5-5-7-5----------7--5-7-5--|
B -------------------5-5-7-5-----------|
G -------------------------------------|
D -------------------------------------|
A -------------------------------------|
E -------------------------------------|

E ----------------------------------------------|
B ----------------------------------------------|
G -------------4--4--4--4--5--5--5--5--77777777-|
D -5--5--5--5--4--4--4--4--5--5--5--5--77777777-|
A -5--5--5--5--2--2--2--2--3--3--3--3--55555555-|
E -3--3--3--3-----------------------------------|

E ----------|
B ----------|
G ----------|
D 77777777--
A 77777777--
E 55555555--

Chorus

 The End! ok, so that took a long time and was not worth it! Fionn O'Dea from Help Wanted!
Tap to rate this tab
# A B C D E F G H I J K L M N O P Q R S T U V W X Y Z