Song name
# A B C D E F G H I J K L M N O P Q R S T U V W X Y Z

Misc Unsigned Bands - The Waplakis - Untitled tab

This is my own tab for my band the waplakis if you have any problems with it
please dont hesitate to contact me

dan.bramwell@gmail.com

INTRO
---------------------------------------------------------------------------|
--77-7--77-7--77-7--77-7-------------------55-5--55-5--55-5--55-5----------|
--77-7--77-7--77-7--77-7-------------------55-5--55-5--55-5--55-5----------|
-------------------------------------------00-0--00-0--00-0--00-0----------|
---------------------------------------------------------------------------|
---------------------------------------------------------------------------|(x3)

VERSE
--2-2-2-2-2-2---2-2-2-2-2-2------------------------------------------------|
--3-3-3-3-3-3---3-3-3-3-3-3---------2-2-2-2-2-2---2-2-2-2-2-2--------------|
--2-2-2-2-2-2---2-2-2-2-2-2---------2-2-2-2-2-2---2-2-2-2-2-2--------------|
------------------------------------2-2-2-2-2-2---2-2-2-2-2-2--------------|
---------------------------------------------------------------------------|
---------------------------------------------------------------------------|

CHORUS
---------------------------------------------------------------------------|
---------------------------------------------------------------------------|
--7-7-7-7-7-7---7-7-7-7-7--------------------------------------------------|
--7-7-7-7-7-7---7-7-7-7-7--9-9-9-9-9-9---9-9-9-9-9-9-----------------------|
--5-5-5-5-5-5---5-5-5-5-5--9-9-9-9-9-9---9-9-9-9-9-9-----------------------|
---------------------------7-7-7-7-7-7---7-7-7-7-7-7-----------------------|

---------------------------------------------------------------------------|
---------------------------------------------------------------------------|
-----------------------------5-5-5-5-5-5---5-5-5-5-5-5---------------------|
-5-5-5-5-5-5---5-5-5-5-5-5---5-5-5-5-5-5---5-5-5-5-5-5---------------------|
-5-5-5-5-5-5---5-5-5-5-5-5---3-3-3-3-3-3---3-3-3-3-3-3---------------------|
-3-3-3-3-3-3---3-3-3-3-3-3-------------------------------------------------|(x2)

SOLO
---------------------------------------------------------------------------|
--12-12-12----12---12----12-12-12-12--12-12-12----12---12----13-13-13------|
-----------12---12---12--11-11-11-11-----------12----12---12-12-12-12------|
---------------------------------------------------------------------------|
---------------------------------------------------------------------------|
---------------------------------------------------------------------------|(x2)
Tap to rate this tab
 
# A B C D E F G H I J K L M N O P Q R S T U V W X Y Z