Song name
# A B C D E F G H I J K L M N O P Q R S T U V W X Y Z

Misc Unsigned Bands - The Corners - Tealer tab

Tis a very simple intro to a very good song by the band the corners. enjoy.

e|------------------|
b|------------------|
g|------------------|
D|-------7-5--------|(x3)
A|-7--5--0-0--------|
E|-0--0-------------| 

e|----------------|
b|----------------|
g|----------------|
D|----------------|
A|-5-7-5-7--------|
E|-0-0-0-0--------|

you play all of the above twice before the other guys come in ;)
Tap to rate this tab
 
# A B C D E F G H I J K L M N O P Q R S T U V W X Y Z