Song name
# A B C D E F G H I J K L M N O P Q R S T U V W X Y Z

Misc Unsigned Bands - Five Good Reasons - The Martyrdom Of Saint Me tab

-------------------------------------------------------------------------------
			     THE MARTYRDOM OF SAINT ME - Five Good Reasons
-------------------------------------------------------------------------------
Tabbed by: The Dreaded :D
Email: Fallback462@yahoo.com

www.myspace.com/fivegoodreasons

Tuning: D Standard

Guitar 1
e|---------------------------------------------------------------------------|
B|---------------------------------------------------------------------------|
G|-2----------2--------------54-----575p0-454p0------------------------------|
D|-2---77h57--2---77h57--5-----755-------------------------------------------|
A|-0----------0----------3----------------------x4---------------------------|
E|---------------------------------------------------------------------------|

Guitar 2
e|---------------------------------------------------------------------------|
B|---------------------------53----------------------------------------------|
G|-2---55h45--2---55h45--------54p0-575p0-454p0------------------------------|
D|-2----------2----------5---------------------------------------------------|
A|-0----------0----------3----------------------x4---------------------------|
E|---------------------------------------------------------------------------|

Guitar 1
e|---------------------------------------------------------------------------|
B|---------------------------------------------------------------------------|
G|-2-------2-----------------------------------------------------------------|
D|-2-------2---------------5--------7----------------------------------------|
A|-0-x8----0---let ring----3--------5--------5-------------------------------|
E|-------------------------------------------3-------------------------------|
  P.M.

Guitar 2
e|---------------------------------------------------------------------------|
B|---------------------------------------------------------------------------|
G|-2-------22222222222222----------------------------------------------------|
D|-2-------22222222222222--5555555--7----------------------------------------|
A|-0-x8----00000000000000--3333333--5--------5-------------------------------|
E|-------------------------------------------3-------------------------------|
  P.M_____________________________

 Both Guitars
e|---------------------------------------------------------------------------|
B|---------------------------------------------------------------------------|
G|-22222222222222------------------------------------------------------------|
D|-22222222222222--5555555----77----10-9-------------------------------------|
A|-00000000000000--3333333----55----8--7-------------------------------------|
E|---------------------------------------------------------------------------|
  P.M___________________________

Guitar 1
e|---------------------------------------------------------------------------|
B|---------------------------------------------------------------------------|
G|-22222222222222-----------------------22222222222222-----------------------|
D|-22222222222222--5555555--7-----------22222222222222--5555555----77----10-9|
A|-00000000000000--3333333--5----5------00000000000000--3333333----55----8--7|
E|-------------------------------3-------------------------------------------|
  P.M_____________________          P.M______________________________

Guitar 2
e|---------------------------------------------------------------------------|
B|----------------------------------------------------------9h10h12----------|
G|--10h9h7h9h7--------12h10h9h10h9---------10h9h7h9h7-10/12--------9h10h9-7--|
D|-7----------9h10---7------------10h12---7--------------------------------10|
A|---------------------------------------------------------------------------|
E|---------------------------------------------------------------------------|
  Play this twice

Start from beginning and play into this next part

Both Guitars
e|---------------------------------------------------------------------------|
B|---------------------------------------------------------------------------|
G|-22222222222--------555-444-----2222222222--------444-555-7----------------|
D|-22222222222-3-2222-555-444-----2222222222-3-2222-444-555-7----------------|
A|-00000000000-3-2222-333-222-5---0000000000-3-2222-222-333-5----------------|
E|-------------1-0000-333-222-3--------------1-0000-222-333-5----------------|


Both Guitars
e|---------------------------------------------------------------------------|
B|---------------------------------------------------------------------------|
G|-22222222222--------555-444-----2222222222----------------------444-555-7--|
D|-22222222222-3-2222-555-444-----2222222222-3-2222-3-2222-3-2222-444-555-7--|
A|-00000000000-3-2222-333-222-5---0000000000-3-2222-3-2222-3-2222-222-333-5--|
E|-------------1-0000-333-222-3--------------1-0000-1-0000-1-0000-222-333-5--|

Guitar 1
e|---------------------------------------------------------------------------|
B|---------------------------------------------------------------------------|
G|22-2222------------22-2222------4-5----------------------------------------|
D|22-2222---22---22--22-2222---22-4-5----------------------------------------|
A|00-0000-3-22-3-22--00-0000-3-22-2-3----------------------------------------|
E|--------1-00-1-00----------1-00-2-3----------------------------------------|
P.M  ____               ____
x5

Guitar 2
e|---------------------------------------------------------------------------|
B|---------------------------------------------------------------------------|
G|---10-9-7--9----10-9-7--9-------7--9--10/12-9-10-9-------------------------|
D|-77--7---10---77--7---10---10-10-10-10------------12-10-9--9---------------|
A|---------------------------------------------------------10----------------|
E|---------------------------------------------------------------------------|
PLay this twice


On the third time play this below and then play the part above two more times.
Guitar 2
e|---------------------------------------------------------------------------|
B|---------------------------------------------------------------------------|
G|---10-9-7--9----10-9-7--9---10-9-7--9-------7--9--10/12--------------------|
D|-77--7---10---77--7---10--77--7---10---10-10-10-10-------------------------|
A|---------------------------------------------------------------------------|
E|---------------------------------------------------------------------------|

These are all the parts to the song. The order is pretty simple.
This last part has heavy palm muting but it would take me forever to show every note muted.
Listen to it it's not too complicated.

| /  slide up
| \  slide down
| h  hammer-on
| p  pull-off
| ~  vibrato
| +  harmonic
| x  Mute note
===============================================================================
Tap to rate this tab
 
# A B C D E F G H I J K L M N O P Q R S T U V W X Y Z