Guitaretab - guitar tabs
Song name
# A B C D E F G H I J K L M N O P Q R S T U V W X Y Z

Misc Unsigned Bands - Party Foul - One Way To Go tab

----------------------------------------------------------------------------
			     One way to go - Party Foul
---------------------------------------------------------------------------
Tabbed by:

Patrick

Email:

theycallmepaco@aol.com


Tuning:

standard

             guitar 1
e|--------------------------------------------------------------------------|
B|--------------------------------------------------------------------------|
G|--------------------------------------------------------------------------|
D|--------------------------------------------------------------------------|
A|-----------9h11--------10-----9-----8-7-----------------------------------|
E|---000-000-------00-------00----00----------------------------------------|pm   ... 
      ..       ..    ..


             guitar 2
e|--------------------------------------------------------------------------|
B|--------------------------------------------------------------------------|
G|--------------------------------------------------------------------------|
D|--------------------------------------------------------------------------|
A|--------------------------------------------------------------------------|
E|--------------------------------------------------------------------------|


             guitar 1
e|---------------------------------------------------------------------------|
B|---------------------------------------------------------------------------|
G|---------------------------------------------------------------------------|
D|---------------------------------------------------------------------------|
A|-----------9h11--------10-----9-----7h9------------------------------------|
E|---000-000-------00-------00----00-----------------------------------------|
pm   ... ...       ..       ..    ..
[ Tab from: http://www.guitaretab.com/m/misc-unsigned-bands/78660.html ]
             guitar 2
e|--------------------------------------------------------------------------|
B|--------------------------------------------------------------------------|
G|--------------------------------------------------------------------------|
D|-2~-----------------------------------------------------------------------|
A|-2~-----------------------------------------------------------------------|
E|-0~-----------------------------------------------------------------------|

             guitar 1
e|--------------------------------------------------------------------------|
B|--------------------------------------------------------------------------|
G|--------------------------------------------------------------------------|
D|--------------------------------------------------------------------------|
A|-----------9h11--------10-----9-----8-7-----------------------------------|
E|---000-000-------00-------00----00----------------------------------------|


            guitar 2
e|--------------------------------------------------------------------------|
B|--------------------------------------------------------------------------|
G|--------------------------------------------------------------------------|
D|-(2)~---------------------------------------------------------------------|
A|-(2)~---------------------------------------------------------------------|
E|-(0)~---------------------------------------------------------------------|

e|--------------------------------------------------------------------------|
B|--------------------------------------------------------------------------|
G|--------------------------------------------------------------------------|
D|-------------------------------------9fb----------------------------------|
A|-----------9h11--------10-----9-------------------------------------------|
E|---000-000-------00-------00----00----------------------------------------|
pm   ... ...       ..       ..    ..

                                                  Feel free to critisize.


| pm palm mute
| /  slide up
| \  slide down
| h  hammer-on
| p  pull-off
| ~  vibrato
| +  harmonic
| x  Mute note
============================================================================
Related for Party Foul - One Way To Go tab
Advertisement will be closed in 10 seconds