Song name
# A B C D E F G H I J K L M N O P Q R S T U V W X Y Z

Misc Unsigned Bands - Always Rushing By - Whiplash From Photographs tab

-----------------------------------------------------------------------------
		    Whiplash from Photographs - Always Rushing By
-----------------------------------------------------------------------------

Tuning:Standard

Intro/Chorus
Guitar 1
e|--------------------------------------------------------------------|
B|--------------------------------------------------------------------|
G|------11------------11-------------11-------------------------------|
D|-9-12----9-12----12-------12----12-------12----11-11-11-11-11-11-11-|
A|--------------10-------10----12-------12----13----13-13-13-13-13-13-|
E|--------------------------------------------------------------------|

e|-----------------------------------------------------------------|
B|-----------------------------------------------------------------|
G|-----------------------------------------------------------------|
D|-9-9-9-9-9-9-9-9-5-5-5-5-5-5-5-5-7-7-7-7-7-7-7-7-8-8-8-8-8-8-8-8-|
A|-9-9-9-9-9-9-9-9-5-5-5-5-5-5-5-5-7-7-7-7-7-7-7-7-8-8-8-8-8-8-8-8-|
E|-7-7-7-7-7-7-7-7-3-3-3-3-3-3-3-3-5-5-5-5-5-5-5-5-6-6-6-6-6-6-6-6-|

Guitar Solo
e|----------------------------------------------------|
B|-------15-------17b18r17-------15-20-19-19h20p18----|
G|-14-16----14-16----------14-16-------------------19-|
D|----------------------------------------------------|
A|----------------------------------------------------|
E|----------------------------------------------------|
Tap to rate this tab
# A B C D E F G H I J K L M N O P Q R S T U V W X Y Z